» » »

Mindless Self Indulgence - Panty Shot Bass

Artists:  A B C D E F G H I J K L M N O P Q R S T U V W X Y Z # 

Panty Shot Bass

(ver. 2) Click to play this song!
Mindless Self Indulgence
 Rating:
4.3/5 (25 votes)

 Panty Shot lessons Tabs too difficult? Try these video lessons and learn fast
 
                Intro:
[rest]

   0:21
G|--------------------------------------|
D|--------------------------------------|
A|--------------------------------------|
E|-9999-7777-454-454-44--44--44--44--454|

   0:35
G|-------------------------------|
D|-------------------------------|
A|-------------------------------|
E|-4444-7777-10-10-10-10-9999----|

   0:39
G|-------------------------------|
D|-------------------------------|
A|-------------------------------|
E|-4444-7777-10-10-10-10-454-----|

   0:43
G|-------------------------------|
D|-------------------------------|
A|-------------------------------|
E|-4444-7777-10-10-10-10-9999----|

   0:48
G|-------------------------------|
D|-------------------------------|
A|-------------------------------|
E|-4444-7777-10-10-10-10-454-----|

   0:56
G|-------------------------------|
D|-------------------------------|
A|-------------------------------|
E|-10-10-10-10-7777-454-454-4~---|

   1:06
G|-------------------------------|
D|-------------------------------|
A|-------------------------------|
E|-444444--444444--444444--454---|

   1:14
G|-------------------------------|
D|-------------------------------|
A|-------------------------------|
E|-4444-7777-10-10-10-10-9999----|

   1:19
G|-------------------------------|
D|-------------------------------|
A|-------------------------------|
E|-4444-7777-10-10-10-10-454-----|

   1:23
G|-------------------------------|
D|-------------------------------|
A|-------------------------------|
E|-4444-7777-10-10-10-10-9999----|

   1:27
G|-------------------------------|
D|-------------------------------|
A|-------------------------------|
E|-4444-7777-10-10-10-10-4-4-4-4-|

   1:34
G|-------------------------------|
D|-------------------------------|
A|-------------------------------|
E|-33--33--33--33--33--33--------|

   1:53
G|-------------------------------|
D|-------------------------------|
A|-------------------------------|
E|-9999-7777-454-454-454---------|

   1:57
G|-------------------------------|
D|-------------------------------|
A|-------------------------------|
E|-33-33-33----------------------|

   2:05
G|-------------------------------|
D|-------------------------------|
A|-------------------------------|
E|-33-33-33----------------------|

   2:12
G|-------------------------------|
D|-------------------------------|
A|-------------------------------|
E|-3334445556667778889999999-----|

   2:22
G|-------------------------------|
D|-------------------------------|
A|-------------------------------|
E|-454-454-454-------------------|

   2:27
G|-------------------------------|
D|-------------------------------|
A|-------------------------------|
E|-4444-7777-10-10-10-10-9999----|

   2:31
G|-------------------------------|
D|-------------------------------|
A|-------------------------------|
E|-4444-7777-10-10-10-10-454-----|

   2:35
G|-------------------------------|
D|-------------------------------|
A|-------------------------------|
E|-4444-7777-10-10-10-10-9999----|

   2:40
G|-------------------------------|
D|-------------------------------|
A|-------------------------------|
E|-4444-7777-10-10-10-10---------|

   2:42
G|-------------------------------|
D|-------------------------------|
A|-------------------------------|
E|-4--4--4--4--454-454-454-------|
            
Submit corrections


        Panty Shot lessons Hard to play? Try these video lessons and learn fast Panty Shot lessons
        
↑ Back to top | Tablatures and chords for acoustic guitar and electric guitar, ukulele, drums are parodies/interpretations of the original songs. You may use it for private study, scholarship, research or language learning purposes only