Home » M » Mindless Self Indulgence »

Mindless Self Indulgence - Issues Tabs

Artists:  A B C D E F G H I J K L M N O P Q R S T U V W X Y Z # 

Issues Tabs

(ver. 1) Click to play this song!
Mindless Self Indulgence
 Rating:
4.2/5 (5 votes)
                Tuning:DADGBE

Thanks to Forsakensoul for pointing out that this is guitar; not synth *as I thought it was* xD I suck lol
e|---------------------------------|
B|---------------------------------|
G|-------8-----7---------------7---|
D|-5-----8-8---7-8-5-------8---7-8-|
A|-5-----6-8---5-8-5-------8---5-8-|
D|-5-------8-----8-5-------8-----8-|

e|-----------------------------------------------------------------|
B|-----------------------------------------------------------------|
G|-------------------------5---------------------------------------|
D|-5---------------4-------5-------5-------------------------------|
A|-5---------------4-------3-------5-------------------------------|
D|-5---------------4---------------5-------------------------------|
It's three A.M. She won't put out let's go make out with her friends. Make out with her 
friends

e|-----------------------------------------------------------------|
B|-----------------------------------------------------------------|
G|-4-4-4-4-2-2-2-2-5-5-5-5---------5-5-5-5-4-4-4-4-5-5-5-5-7-7-7-7-|
D|-4-4-4-4-2-2-2-2-5-5-5-5-5-5-5-5-5-5-5-5-4-4-4-4-5-5-5-5-7-7-7-7-|
A|-2-2-2-2-0-0-0-0-3-3-3-3-5-5-5-5-3-3-3-3-2-2-2-2-3-3-3-3-5-5-5-5-|
D|-------------------------5-5-5-5---------------------------------|
Excuse me do you want to screw? Excuse me do you want to screw?

e|-----------------------------------------------------------------|
B|-----------------------------------------------------------------|
G|-----------------5-5-5-5-4-4-4-4-5-5-5-5---------5-5-5-5-7-7-7-7-|
D|-5-5-5-5-4-4-4-4-5-5-5-5-4-4-4-4-5-5-5-5-5-5-5-5-5-5-5-5-7-7-7-7-|
A|-5-5-5-5-4-4-4-4-3-3-3-3-2-2-2-2-3-3-3-3-5-5-5-5-3-3-3-3-5-5-5-5-|
D|-5-5-5-5-4-4-4-4-------------------------5-5-5-5-----------------|
I'm so amazing in the sack. So so amazing in the sack


e|---|
B|---|
G|---|
D|-5-|
A|-5-|
D|-5-|

I think this is the easiest tab I've ever done.......

Anyways; this song can be played in standard tuning aswell. The notes on the E are two 
higher. Example

e|---|       |---|
B|---|       |---|
G|---|       |---|
D|-5-|becomes|-5-|
A|-5-|       |-5-|
D|-5-|       |-3-|
            
Submit corrections

↑ Back to top | Tablatures and chords for acoustic guitar and electric guitar, ukulele, drums are parodies/interpretations of the original songs. You may use it for private study, scholarship, research or language learning purposes only