Home » M » Mindless Self Indulgence »

Mindless Self Indulgence - Clarissa Tabs

Artists:  A B C D E F G H I J K L M N O P Q R S T U V W X Y Z # 

Clarissa Tabs

(ver. 2) Click to play this song!
Mindless Self Indulgence
 Rating:
4/5 (6 votes)
                Intro:
-Because this song is in D#, you will either need to tune up a half-step or put a capo 
your 1st fret to do the open-string legato properly.


Guitar 1  (1st Fret Capo'd):
E---------------------------------------------|
B---------------------------------------------|
G---------------------------------------------|
D-1-1-13p1-h11p1-1-h8p1-1-h7p1-h6p1-4h6-------|
A---------------------------------------------|
E---------------------------------------------|

Guitar 2:
E---------------------------------------------|
B---------------------------------------------|
G----------------------------------------8----|
D----------------------------------------8----|
A----------------------------------------6----|
E---------------------------------------------|

"Every single one..."
----------------------------|
----------------------------|
-8-8----------7-7-------/11-|
-8-8----------7-7---9-9-/11-|
-6-6----------5-5---9-9-/9--|
--------------------7-7-----|

"Little   teenage  b**ch"
----------------------|
-------------------9--|
-8-8-8-8--10-11----8--|
-8-8-8-8--10-11----6--|
-6-6-6-6--8--9--------|
----------------------|

"If you're so smart explain this, Clarissa..."
----------------------------------------|
----------------------------------------|
----8~~~~~~~~~~~~~~~~~~~~~~~~~~~~~~~~~~~
----8~~~~~~~~~~~~~~~~~~~~~~~~~~~~~~~~~~~
----6~~~~~~~~~~~~~~~~~~~~~~~~~~~~~~~~~~~
----------------------------------------

"Pow!!!"
------------------------------------|
------------------------------------|
-8--8--8------------------9---9-----|
-8--8--8--8---8---9---9---9-9-9-9---|
-6--6--6--8---8---9---9---7-9-7-9---|
----------6---6---7---7-----7---7---|


"You're so smart"
-------------|
-------------|
-8-----8-----|
-8-----8-----|
-6-----6-----|
-------------|


"Clarissa, Clarissa Oooooo!"
------------------------------------|
------------------------------------|
-8--8--8----------------------------|
-8--8--8--8---8----9~~~~~~~~~~~~~~~-|
-6--6--6--8---6----9~~~~~~~~~~~~~~~-|
----------6---6----7~~~~~~~~~~~~~~~-|
            
Submit corrections

↑ Back to top | Tablatures and chords for acoustic guitar and electric guitar, ukulele, drums are parodies/interpretations of the original songs. You may use it for private study, scholarship, research or language learning purposes only