» » »

Miley Cyrus - Start All Over Tabs

Artists:  A B C D E F G H I J K L M N O P Q R S T U V W X Y Z # 

Start All Over Tabs

(ver. 1) Click to play this song!
Miley Cyrus
 Rating:
4/5 (4 votes)

 Start All Over lessons Tabs too difficult? Try these video lessons and learn fast
 
                Miley Cyrus - Start All Over (Live)
-----------------------------------

This is the live version from the 'Best of Both Worlds Concert Tour' with
the little solo at the beginning. These tabs are not 100% correct but I
think it comes very close and it is fun to play. So-- have fun ;)



### INTRO ### 00:11 ###
e|---------------------------------------------------------------------------------------|
B|---------------------------------------------------------------------------------------|
G|---------------------------------------------------------------------------------------|
D|--5-5-5-5-5-5-5-5-(3x)-5-5-5-5-5-5---5-(1x)-5-5-5-5-5-5-5-5-(3x)-5-5-5-5-5-5-3-3-(1x)--|
A|--5-5-5-5-5-5-5-5------5-5-5-5-5-5---5------5-5-5-5-5-5-5-5------5-5-5-5-5-5-3-3-------|
E|--3-3-3-3-3-3-3-3------3-3-3-3-3-3-1-3------3-3-3-3-3-3-3-3------3-3-3-3-3-3-1-1-------|(pm)

e|------------------------------------------------------------------|
B|------------------------------------------------------------------|
G|------------------------------------------------------------------|
D|--5-5---5-5-5---5-5-5---5-5-5-7b---5-5---5-5-5---5-5-5---5-5-3-3--|
A|--5-5---5-5-5---5-5-5---5-5-5-7b---5-5---5-5-5---5-5-5---5-5-3-3--|
E|--3-3---3-3-3---3-3-3---3-3-3-5b---3-3---3-3-3---3-3-3---3-3-1-1--| (very slight bend)

e|--------------------------------------------------------------|
B|--------------------------------------------------------------|
G|--14b-14-12-11-------11-11b---14b-14-12-11-11----10-10b--b10--|
D|---------------12-12--------------------------12--------------|
A|--------------------------------------------------------------|
E|--------------------------------------------------------------|

e|-------------------------------------------|               |----|----|----|----|
B|-------------------------------------------|               |----|----|----|----|
G|--14b-b14-14-12---12-12-12-14b-b14-14-12\--| (v.s. bend)   |----|----|----|----|
D|-------------------------------------------|               |----|----|----|----|
A|-------------------------------------------|               |----|-(drums)-|----|
E|-------------------------------------------|               |----|----|----|----|


### PRE-VERSE ### 00:51 ###
e|-------------------------------------------------------------------------|
B|-------------------------------------------------------------------------|
G|-------------------------------------------------------------------------|
D|--5-5---5-5-5---5-5-5---5-5-5-7b---5-5---5-5-5---5-5-5---5-5-3-3---(2x)--|
A|--5-5---5-5-5---5-5-5---5-5-5-7b---5-5---5-5-5---5-5-5---5-5-3-3---------|
E|--3-3---3-3-3---3-3-3---3-3-3-5b---3-3---3-3-3---3-3-3---3-3-1-1---------|


### VERSE ### 01:03 ###
e|-------------------------------------------------------------------------|
B|-------------------------------------------------------------------------|
G|-------------------------------------------------------------------------|
D|--5-5---5-5-5---5-5-5---5-5-5-7b---5-5---5-5-5---5-5-5---5-5-3-3---(2x)--|
A|--5-5---5-5-5---5-5-5---5-5-5-7b---5-5---5-5-5---5-5-5---5-5-3-3---------|
E|--3-3---3-3-3---3-3-3---3-3-3-5b---3-3---3-3-3---3-3-3---3-3-1-1---------|(pm)


### PRE-CHORUS ### 01:16 ###
e|-----------------------------------------------------------------------------|
B|-----------------------------------------------------------------------------|
G|--10-10-10-10-10-10-10-10--9-9-9-9-9-9-9-9-----------------------------------|
D|--10-10-10-10-10-10-10-10--9-9-9-9-9-9-9-9--7-7-7-7-7-7-7-7-7-7-7-7-7-7-7-7--|
A|---8--8--8--8--8--8--8--8--7-7-7-7-7-7-7-7--7-7-7-7-7-7-7-7-7-7-7-7-7-7-7-7--|
E|--------------------------------------------5-5-5-5-5-5-5-5-5-5-5-5-5-5-5-5--|

e|-----------------------------------------------------------------------------|
B|-----------------------------------------------------------------------------|
G|--10-10-10-10-10-10-10-10--9-9-9-9-9-9-9-9--8-8-8-8-8-8-8-8--8---8---8---5---|
D|--10-10-10-10-10-10-10-10--9-9-9-9-9-9-9-9--8-8-8-8-8-8-8-8--8---8---8---5---|
A|---8--8--8--8--8--8--8--8--7-7-7-7-7-7-7-7--6-6-6-6-6-6-6-6--6---6---6---3---|
E|-----------------------------------------------------------------------------|

### CHORUS ### 01:29 ###
e|----------------------------------------------------|
B|----------------------------------------------------|
G|---------5-------------7------8------------------5--|
D|--5-(8x)-5-(8x)-5-(8x)-7-(8x)-8-(8x)-8---8---8---5--|
A|--5------3------5------5------6------8---8---8---3--|
E|--3-------------3--------------------6---6---6------|

e|----------------------------------------------------------------------------|
B|----------------------------------------------------------------------------|
G|---------5-------------7------8------------------5---8-------------------5--|
D|--5-(8x)-5-(8x)-5-(8x)-7-(8x)-8-(8x)-8---8---8---5---8-(8x)--8---8---8---5--|
A|--5------3------5------5------6------8---8---8---3---6-------8---8---8---3--|
E|--3-------------3--------------------6---6---6---------------6---6---6------|


### PRE-VERSE ### 01:51 ###
e|------------------------------------------------------------------|
B|------------------------------------------------------------------|
G|------------------------------------------------------------------|
D|--5-5---5-5-5---5-5-5---5-5-5-7b---5-5---5-5-5---5-5-5---5-5-3-3--|
A|--5-5---5-5-5---5-5-5---5-5-5-7b---5-5---5-5-5---5-5-5---5-5-3-3--|
E|--3-3---3-3-3---3-3-3---3-3-3-5b---3-3---3-3-3---3-3-3---3-3-1-1--|


### VERSE ### 01:57 ###

### PRE-CHORUS ### 02:10 ###

### CHORUS ### 02:23 ###


### INTERLUDE ### 02:45 ###
e|-------------------------------------------------------------------------|
B|-------------------------------------------------------------------------|
G|-------------------------------------------------------------------------|
D|--5-5---5-5-5---5-5-5---5-5-5-7b---5-5---5-5-5---5-5-5---5-5-3-3---(3x)--|
A|--5-5---5-5-5---5-5-5---5-5-5-7b---5-5---5-5-5---5-5-5---5-5-3-3---------|
E|--3-3---3-3-3---3-3-3---3-3-3-5b---3-3---3-3-3---3-3-3---3-3-1-1---------|(pm)

e|------------------------------------------------------------------|
B|------------------------------------------------------------------|
G|------------------------------------------------------------------|
D|--5-5---5-5-5---5-5-5---5-5-5-7b---5-5---5-5-5---5-5-5---5-5-3-3--|
A|--5-5---5-5-5---5-5-5---5-5-5-7b---5-5---5-5-5---5-5-5---5-5-3-3--|
E|--3-3---3-3-3---3-3-3---3-3-3-5b---3-3---3-3-3---3-3-3---3-3-1-1--|

e|-------------------------------------------------------------------------------------------|
B|-------------------------------------------------------------------------------------------|
G|-------------------------------------------------8--8--8--5--8--8--8--5-5--8--8--8--5-5-5--|
D|--5-5---5-5-5---5-5-5---5-5-5-7b---5-5--5-5-5-5--8--8--8--5--8--8--8--5-5--8--8--8--5-5-5--|
A|--5-5---5-5-5---5-5-5---5-5-5-7b---5-5--5-5-5-5--6--6--6--3--6--6--6--3-3--6--6--6--3-3-3--|
E|--3-3---3-3-3---3-3-3---3-3-3-5b---3-3--3-3-3-3--------------------------------------------|


### CHORUS ### 03:21 ###
e|----------------------------------------------------|
B|----------------------------------------------------|
G|---------5-------------7------8------------------5--| 3x
D|--5-(8x)-5-(8x)-5-(8x)-7-(8x)-8-(8x)-8---8---8---5--|
A|--5------3------5------5------6------8---8---8---3--|
E|--3-------------3--------------------6---6---6------|

e|----------------------------------------------------------------------------|
B|----------------------------------------------------------------------------|
G|---------5-------------7------8------------------5---8-------------------5--|
D|--5-(8x)-5-(8x)-5-(8x)-7-(8x)-8-(8x)-8---8---8---5---8-(8x)--8---8---8---5--|
A|--5------3------5------5------6------8---8---8---3---6-------8---8---8---3--|
E|--3-------------3--------------------6---6---6---------------6---6---6------|


### OUTRO ### 04:03 ###
e|---------------------------------------------------------------------|
B|---------------------------------------------------------------------|
G|---------------------------------------------------------------------|
D|--5-5---5-5-5---5-5-5---5-5-5-7b---5-5---5-5-5---5-5-5---5-5-3-3-5\--|
A|--5-5---5-5-5---5-5-5---5-5-5-7b---5-5---5-5-5---5-5-5---5-5-3-3-5\--|
E|--3-3---3-3-3---3-3-3---3-3-3-5b---3-3---3-3-3---3-3-3---3-3-1-1-3\--|
            
Submit corrections


        Start All Over lessons Hard to play? Try these video lessons and learn fast Start All Over lessons
        
↑ Back to top | Tablatures and chords for acoustic guitar and electric guitar, ukulele, drums are parodies/interpretations of the original songs. You may use it for private study, scholarship, research or language learning purposes only