» » »

Miley Cyrus - Start All Over Bass

Artists:  A B C D E F G H I J K L M N O P Q R S T U V W X Y Z # 

Start All Over Bass

(ver. 1) Click to play this song!
Miley Cyrus
 Rating:
4/5 (4 votes)

 Start All Over lessons Tabs too difficult? Try these video lessons and learn fast
 
                Miley Cyrus
Start All Over
Bass Tab

Intro:
E|---------|
D|---------|
A|---------|
E|-3-3-3-3-| x7 on the seventh time slide down on last note

Verse 1:
E|-------------------------------|
D|-------------------------------|
A|-------------------------------|  x10
E|-3-3-x-3-3-3-x-3-3-3-x-3-3-1-1-|

Pre-Chorus:
E|---------------------------------|
D|---------------------------------|
A|-8-8-8-8-8-8-8-8-7-7-7-7-7-7-7-7-|
E|---------------------------------|

E|---------------------------------|
D|---------------------------------|
A|---------------------------------|
E|-3-3-3-3-3-3-3-3-3-3-3-3-3-3-3-3-|

E|---------------------------------|
D|---------------------------------|
A|-8-8-8-8-8-8-8-8-7-7-7-7-7-7-7-7-|
E|---------------------------------|

E|---------------------------------|
D|-5-5-5-5-5-5-5-5-5-3-2-----------|
A|-----------------------5-3-2-----|
E|-----------------------------5-3-|

Chorus:
E|---------------------------------|
D|---------------------------------|
A|-----------------3-3-3-3-3-3-3-3-|
E|-3-3-3-3-3-3-3-3-----------------|

E|---------------------------------|
D|---------------------------------|
A|-----------------5-5-5-5-5-5-5-5-|
E|-3-3-3-3-3-3-3-3-----------------|

E|----------------------------|
D|----------------------------|
A|-6-6-6-6-6-6-6-6-8--8-10-10-|
E|----------------------------|

E|----------------------------|
D|----------------------------|
A|-----------------8--8-10-10-|
E|-6-6-6-6-6-6-6-6------------|

Bridge:
E|-----------------|
D|-----------------|
A|-----------------| x7 slide down seventh time, last note
E|-3-3-3-3-3-3-3-3-|

E|---------------------------------|
D|---------------------------------|
A|---------------------------------| x16
E|-3-3-x-3-3-3-x-3-3-3-x-3-3-3-1-1-|

E|-----------------|
D|-5-3-2-----------|
A|-------5-3-2-----|
E|-------------5-3-|

Chorus:
E|---------------------------------|
D|---------------------------------|
A|-----------------3-3-3-3-3-3-3-3-|
E|-3-3-3-3-3-3-3-3-----------------|

E|---------------------------------|
D|---------------------------------|
A|-----------------5-5-5-5-5-5-5-5-|
E|-3-3-3-3-3-3-3-3-----------------|

E|----------------------------|
D|----------------------------|
A|-6-6-6-6-6-6-6-6-8--8-10-10-|
E|----------------------------|

E|----------------------------|
D|----------------------------|
A|-----------------8--8-10-10-|    Chorus x4
E|-6-6-6-6-6-6-6-6------------|

Intro/End
E|-------------------------------|
D|-------------------------------|
A|-------------------------------|  x8
E|-3-3-x-3-3-3-x-3-3-3-x-3-3-1-1-|

E|-12\-|
D|-5\--|
A|-----|
E|-3\--|
            
Submit corrections


        Start All Over lessons Hard to play? Try these video lessons and learn fast Start All Over lessons
        
↑ Back to top | Tablatures and chords for acoustic guitar and electric guitar, ukulele, drums are parodies/interpretations of the original songs. You may use it for private study, scholarship, research or language learning purposes only