» » »

Miley Cyrus - Fly On The Wall Tabs

Artists:  A B C D E F G H I J K L M N O P Q R S T U V W X Y Z # 

Fly On The Wall Tabs

(ver. 2) Click to play this song!
Miley Cyrus
 Rating:
4/5 (4 votes)

 Fly On The Wall lessons Tabs too difficult? Try these video lessons and learn fast
 
                -------------------------------------------------------------------------------
                     'Fly On The Wall,' By Miley Cyrus
-------------------------------------------------------------------------------

This should pretty much be it. I did not tab anything for the verses because I'm pretty 
that it was just bass playing. Enjoy!

Tuning: Standard
Guitar: Distorted

Intro
e|---------------------------------------------------------------------------|
B|---------------------------------------------------------------------------|
G|---------------------------------------------------------------------------|
D|---------------------------------------------------------------------------|
A|---------------------------------------------------------------------------|
E|---3-3-3-3-6-6-6-6-11-11-11-11-10-10-10-10---x3----------------------------|

Chorus
e|---------------------------------------------------------------------------|
B|---------------------------------------------------------------------------|
G|---------------------------------------------------------------------------|
D|-----5-----8-----13-----12-------------------------------------------------|
A|-----5-----8-----13-----12-------------------------------------------------|
E|-----3-----6-----11-----10-------------------------------------------------|

Bridge
e|---------------------------------------------------------------------------|
B|---------------------------------------------------------------------------|
G|---------------------------------------------------------------------------|
D|----10--10---8---10-----5---5---3---5--------------------------------------|
A|----10--10---8---10-----5---5---3---5------x2------------------------------|
E|-----8---8---6----8-----3---3---1---3--------------------------------------|


e|---------------------------------------------------------------------------|
B|---------------------------------------------------------------------------|
G|---------------------------------------------------------------------------|
D|---------------------------------------------------------------------------|
A|---------------------------------------------------------------------------|
E|---3-3-3-3-6-6-6-6-11-11-11-11-10-10-10-10---x6----------------------------|

| /  slide up
| \  slide down
| h  hammer-on
| p  pull-off
| ~  vibrato
| +  harmonic
| x  Mute note
===============================================================================
            
Submit corrections


        Fly On The Wall lessons Hard to play? Try these video lessons and learn fast Fly On The Wall lessons
        
↑ Back to top | Tablatures and chords for acoustic guitar and electric guitar, ukulele, drums are parodies/interpretations of the original songs. You may use it for private study, scholarship, research or language learning purposes only