» » »

Miley Cyrus - Fly On The Wall Tabs

Artists:  A B C D E F G H I J K L M N O P Q R S T U V W X Y Z # 

Fly On The Wall Tabs

(ver. 1) Click to play this song!
Miley Cyrus
 Rating:
4/5 (4 votes)

 Fly On The Wall lessons Tabs too difficult? Try these video lessons and learn fast
 
                Miley Cyrus - Fly On The Wall
-----------------------------

Here is how I play 'Fly On The Wall' by Miley Cyrus.
so here it is. Have fun ;)

Tuning is Drop D.



### INTRO + CHORUS ### 00:00 ###
e|--------------------|
B|--------------------|
G|----------8887-77\--|  4x
D|--555588888887-77\--|
A|--555588886665-55\--|
D|--55558888----------|


### VERSE ### 00:14 ###  (the tuples are palm muted, the triples w/o pm)
e|----------|--------|--------|--------|--------|--------|--------|--------|
B|----------|--------|--------|--------|--------|--------|--------|--------|
G|----------|--------|--------|--------|--------|--------|--------|--------|
D|--5-------|-----5-5|4-------|-----4-4|5-------|-----5-4|5-------|----5432|
A|--5-555555|555555-5|4-444444|444444-4|5-555555|555555-4|5-555555|55555432|
D|--5-555555|555555-5|4-444444|444444-4|5-555555|555555-4|5-555555|55555432|

e|--------|--------|--------|--------|--------|--------|--------|----------|
B|--------|--------|--------|--------|--------|--------|--------|----------|
G|--------|--------|--------|--------|--------|--------|--------|77777777--|
D|1-------|-----1-1|5-------|--------|88888888|88888888|77777777|77777777--|
A|1-111111|111111-1|5-555555|88888888|66666666|66666666|55555555|55555555--|
D|1-111111|111111-1|5-555555|88888888|--------|--------|--------|----------|



### CHORUS ### 00:40 ###

### VERSE ### 00:53 ###

### CHORUS ### 01:20 ###



### INTERLUDE ### 01:34 ###
e|----------------|--------|-------------|--------|
B|----------------|--------|-------------|--------|
G|----------------|--------|-------------|--------|  2x
D|--10-10-8-10----|--------|--5-5-3-5----|--------|
A|--10-10-8-10----|--------|--5-5-3-5----|--------|
D|--10-10-8-10----|--------|--5-5-3-5----|--------|


### PRE-CHORUS ### 01:47 ###
e|------------------------------------------|
B|------------------------------------------|  4x
G|------------------------------------------|
D|------------------------------------------|  like the chorus but palm
A|--5-5-5-5-8-8-8-8-13-13-13-12---12-12-12--|  muted, alternative fingering,
D|--5-5-5-5-8-8-8-8-13-13-13-12---12-12-12--|  increasing volume



### CHORUS ### 02:00 ### (8x!!)



### ENDING ### 02:27 ###
e|-----|
B|-----|
G|-----|
D|--5--|
A|--5--|
D|--5--|
            
Submit corrections


        Fly On The Wall lessons Hard to play? Try these video lessons and learn fast Fly On The Wall lessons
        
↑ Back to top | Tablatures and chords for acoustic guitar and electric guitar, ukulele, drums are parodies/interpretations of the original songs. You may use it for private study, scholarship, research or language learning purposes only