Home » M » Mew »

Mew - Introducing Palace Players Tabs

Artists:  A B C D E F G H I J K L M N O P Q R S T U V W X Y Z # 

Introducing Palace Players Tabs

(ver. 1) Click to play this song!
Mew
 Rating:
3.3/5 (6 votes)
                (Intro)
#------------------------------------------------------------------------------##


07.15.09


TUNING: (E A D G B E)




** Here's a good starting point; now who wants to finish it?





Intro: 0:00 - 0:54


E||-------------------||
B||-------------------||
G||-------------------|| REPEAT REPEAT // LISTEN FOR TIMING
D||------7--5-5/7-7~----||
A||------5--7-7/9-5~--||
E||-7-7---------------||



0:55 - 1:16




E||-----------------------------------------|----------------------------------------||
B||-----------------------------------------|----------------------------------------||
G||-----------------------------------------|----------------------------------------|| 
D||---0h7---7-------------5-5----5---7------|---5-5------0h5^---5---5-5-------0h5^---||
A||-------------5~-4--5------------------5~-|----------------------------------------||
E||-7-----7---7---------7-----7----7---7----|-3-----3-0h3----3----3-----3--0h3----3--||


E||-----------------------------------------|----------------------------------------||
B||-----------------------------------------|----------------------------------------||
G||-----------------------------------------|----------------------------------------|| 
D||---0h7---7-------------5-5----5---7------|--0h5---7--------------0h5---9----------||
A||-------------5~-4--5------------------5~-|-4----4--0h4h5~4---5-4-----4---0h4h5~4--||
E||-7-----7---7---------7-----7----7---7----|----------------------------------------||




// Start @ 1:16 

E||-----------------------------------------|------------------------------------------||
B||-----------------------------------------|------------------------------------------||
G||-----------------------------------------|------------------------------------------|| 
D||---0h7---7-------------5-5----5---7---4~-|---5-5------0h5^---5-----5-5-------0h5^---||
A||-------------5~----5---------------------|------------------------------------------||
E||-7-----7---7----7----7-----7----7---7----|-3-----3-0h3----3----0h3-----3--0h3----3--||


E||-----------------------------------------------||
B||-----------------------------------------------||
G||-----------------------------------------------|| REPEAT 
D||-----2-2/4--0--2--------2---2-2/4-0-----2-2p0--||
A||-----------------------------------------------||
E||-0-0------------2~--2~----0---------0-0--------||








#------------------------------------------------------------------------------##
            
Submit corrections

↑ Back to top | Tablatures and chords for acoustic guitar and electric guitar, ukulele, drums are parodies/interpretations of the original songs. You may use it for private study, scholarship, research or language learning purposes only