Home » M » Mew »

Mew - Introducing Palace Players Tabs

Artists:  A B C D E F G H I J K L M N O P Q R S T U V W X Y Z # 

Introducing Palace Players Tabs

(ver. 3) Click to play this song!
Mew
 Rating:
4.2/5 (5 votes)
                Introducing Palace Players, by Mew


Standard tuning

~ - Let ring
h - hammer on
p - pull off
/ - slide up
\ - slide down

This is a really fun song to play. Listen to the song for the exact strumming, 
during the chorus and the last bit towards the end.

---------------------------------------------------

Intro 1 of sorts:

(0:00 - 0:55)


e-------------------------|
B-------------------------|
G-------------------------|
D-------7--5-5/7--4-------|
A-------5--7-7/9--5-------|
E--7-7--------------------|


----------------------------------------------

Intro 2 of sorts:

(0:55 - 1:48)

e---------------------------------------------|---------------------------------------------|
B---------------------------------------------|---------------------------------------------|
G---------------------------------------------|---------------------------------------------|
D---0h5---7---------------5--5---5---7--------|---5--5---0~-h5------0-----5-5---0~-h5----0--|
A-------------5------5-------------------5----|---------------------------------------------|
E-7-----7---7----7-----7-------7---7---7----7-|-3------3---3----3-----3p0-----3---3----3----|


e---------------------------------------------|------------------------------------------|
B---------------------------------------------|------------------------------------------|
G---------------------------------------------|------------------------------------------|
D---0h5---7--------------5--5---5---7---------|---0h7---7---0------0---0h7---9---0-------|
A-------------5------5------------------5-----|------------------------------------------|
E-7-----7---7----7-----7------7---7---7-------|-9-----9---9----9----9------9---9-----9---|


e------------------------------------------|----------------------------------------------|
B------------------------------------------|----------------------------------------------|
G------------------------------------------|----------------------------------------------|
D---0h5---7--------------5--5---5---7---4--|----5--5---0~-h5------0-----5--5---0~-h5------|
A-------------5------5---------------------|----------------------------------------------|
E-7-----7---7----7-----7------7---7---7----|--3------3---3-----3----3p0------3---3---3----|

e------------------------------------------------|
B------------------------------------------------|
G------------------------------------------------|
D-0----2-2/4--0-2--------0---2-2/4-0-----2-2p0---|
A------------------------------------------------|
E---0-------------2--2-----0---------2p0---------|

e-------------------------------------------|------------------------------------------|
B-------------------------------------------|------------------------------------------|
G-------------------------------------------|------------------------------------------|
D---0h5---7--------------5--5---5---4--2p0--|---0h5---5---0h5-----0----5-5--0--h5------|
A-------------5------5----------------------|------------------------------------------|
E-7-----7---7----7-----7------7---7---------|-3-----3---3------3---3p0----3--3-----3---|

e------------------------------------------------|
B------------------------------------------------|
G------------------------------------------------|
D-0----2-2/4--0-2--------0---2-2/4-0-----2-2p0---|
A------------------------------------------------|
E---0-------------2--2-----0---------2p0---------|


---------------------------------------------------------

Verse 1:

(1:48 - 2:19)


e---------------------------------------------|-------------------------------------------|
B---------------------------------------------|-------------------------------------------|
G---------------------------------------------|-------------------------------------------|
D---0h5---7---------------5--5---5---7--------|---0h5---5---0h5-----0-----5-5---0~--5-----|
A-------------5------5-------------------5----|-------------------------------------------|
E-7-----7---7----7-----7-------7---7---7----7-|-3------3---3----3-----3p0-----3---3----3--|

e------------------------------------------------|
B------------------------------------------------|
G------------------------------------------------|
D-0----2-2/4--0-2--------0---2-2/4-0-----2-2p0---|
A------------------------------------------------|
E---0-------------2--2-----0---------2p0---------|

e-------------------------------------------|------------------------------------------|
B-------------------------------------------|------------------------------------------|
G-------------------------------------------|------------------------------------------|
D---0h5---7--------------5--5---5---4--2p0--|---0h5---5---0h5-----0---5-5---0~--5------|
A-------------5------5----------------------|------------------------------------------|
E-7-----7---7----7-----7------7---7---------|-3-----3---3------3---3p0---3---3-----3---|

e---------------------------------------------------|
B---------------------------------------------------|
G---------------------------------------------------|
D-0----2-2/4--0-2--------0---2-2/4-0-----2-2p0------|
A---------------------------------------------------|
E---0-------------2--2-----0---------2p0-------7-7--|

------------------------------------------------------

Chorus (x2):

(2:19 - 2:39)


e--------------------------------------------------------------------------------|
B--------------------------------------------------------------------------------|
G--------------------------------------------------------------------------------|
D-----------4-4--7-7--4---------4-4--7/9--2p0--5-7-5-4\2------7----9----4--------|
A-------------------------------------------------------------------------555----|
E-7--7-7-7---------------77--7-----------------------------55---77---22----------|


------------------------------------------------------------

2nd Verse:

(2:39 - 3:12)

e------------------------------------------|---------------------------------------------|
B------------------------------------------|---------------------------------------------|
G------------------------------------------|---------------------------------------------|
D---0h5---7--------------5--5---5---7---4--|----5--5---0~-h5------0-----5--5---0~-h5-----|
A-------------5------5---------------------|---------------------------------------------|
E-7-----7---7----7-----7------7---7---7----|--3------3---3-----3----3p0-----3---3---3----|

e------------------------------------------------|
B------------------------------------------------|
G------------------------------------------------|
D-0----2-2/4--0-2--------0---2-2/4-0-----2-2p0---|
A------------------------------------------------|
E---0-------------2--2-----0---------2p0---------|

e-------------------------------------------|------------------------------------------|
B-------------------------------------------|------------------------------------------|
G-------------------------------------------|------------------------------------------|
D---0h5---7--------------5--5---5---4--2p0--|---0h5---5---0h5-----0---5-5---0~--5------|
A-------------5------5----------------------|------------------------------------------|
E-7-----7---7----7-----7------7---7---------|-3-----3---3------3---3p0---3---3-----3---|

e---------------------------------------------------|
B---------------------------------------------------|
G---------------------------------------------------|
D-0----2-2/4--0-2--------0---2-2/4-0-----2-2p0------|
A---------------------------------------------------|
E---0-------------2--2-----0---------2p0-------7-7--|


--------------------------------------------------------------

Chorus (x4):

(3:12 - 3:52)


e----------------------------------------------------------------------------------|
B----------------------------------------------------------------------------------|
G----------------------------------------------------------------------------------|
D-----------4-4--7-7--4---------4-4--7/9---2p0---5-7-5-4\2------7----9----4--------|
A---------------------------------------------------------------------------555----|
E-7--7-7-7---------------77--7-------------------------------55---77---22----------|


-----------------------------------------------------------

Last bit:

(3:52 - 4:47 (end))


  F#5        A5       G5      F#5   A5  C#5         G5
e-------------------------------------------------------------------|
B-------------------------------------------------------------------|
G-------------------------------------------------------------------|
D-4-4-444\---7-7-7\---5-5-5\--4-4-4-7-7/11-11-11\---5-5-5\----------|
A-4-4-444\---7-7-7\---5-5-5\--4-4-4-7-7/11-11-11\---5-5-5\----------|
E-2-2-222\---5-5-5\---3-3-3\--2-2-2-5-5/9--9--9-\---3-3-3\----------|

F#5            B5
   Why did you go?,
A5
Lots of different reasons,
G5
So many you can't even count
F#5                A5
   You think it's right,
C#5
Jumping off the seesaw,
G5
Or do you just want it to be?


F#5            A5
   Why did you go?,
C#5
Lots of different reasons,
G5
So many you can't even count
F#5                    B5
   You think it's right
A5
Jumping off the seesaw,
G5
  Or do you just want it to be?


F#5 B5 A5
            
Submit corrections

↑ Back to top | Tablatures and chords for acoustic guitar and electric guitar, ukulele, drums are parodies/interpretations of the original songs. You may use it for private study, scholarship, research or language learning purposes only