Home » M » Mew »

Mew - Comforting Sound Tabs

Artists:  A B C D E F G H I J K L M N O P Q R S T U V W X Y Z # 

Comforting Sound Tabs

(ver. 1) Click to play this song!
Mew
 Rating:
4/5 (4 votes)
                Creddit to: naveed (Original creator of this tab)


A – 577655 || Bm - 224432
E – x22100 || D  - xx0323

\  = Slide down 
/  = Slide up    

[INTRO]
      
e|-----------------------------------------------------------|
B|-----------------------------------------------------------|
G|-----6------6------6------6---------1-----1------1------1--|
D|--7-7-7--7-7-7--7-7-7--7-7-7\--2/3\2---2-2-2--2-2-2--2-2-2-|
A|-----------------------------------------------------------|
E|-----------------------------------------------------------|

e|-----------------------------------------------------------|
B|-----------------------------------------------------------|
G|---------------------------6-6--6-6-6--6-6-6--6-6-6--6\----|
D|-------4------4------4-----7-7--7-7-7--7-7-7--7-7-7—-7\----|
A|--5/6\5-5--5-5-5--5-5-5------------------------------------|
E|-----------------------------------------------------------|

e|-----------------------------------------------------------|
B|-----------------------------------------------------------|
G|--1-1--1-1-1--1-1-1--1-1-1--1-----7-------7-------7--------|
D|--2-2--2-2-2--2-2-2--2-2-2--2--4-4---4-4-4---4-4-4---------|
A|-------------------------------5-5---5-5-5---5-5-5---------|
E|-----------------------------------------------------------|

e|-----------------------------------------------------------|
B|-----------------------------------------------------------|
G|-------7---------9-------9-------9-------9-----------------|
D|--4-4-4---4/--6-6---6-6-6---6-6-6---6-6-6---6--------------|
A|--5-5-5---5/--7-7---7-7-7---7-7-7---7-7-7---7--------------|
E|-----------------------------------------------------------|


[VERSE 1] repeat X 2

e|-----------------------------------------------------------|
B|-----------------------------------------------------------|
G|------14------14------14------14\-----9-----9-----9-----9\-|
D|--9-9-----9—9-----9—9-----9—9---\-6-6---6-6---6-6---7-6--\-|
A|-10-10---10-10---10-10---10-10--\-7-7---7-7---7-7---7-6--\-|
E|-----------------------------------------------------------|

e|-----------------------------------------------------------|
H|-----------------------------------------------------------|
G|----7-------7-------7-------7------------------------------|
D|-4-4---4-4-4---4-4-4---4-4-4---4---------------------------|
A|-5-5---5-5-5---5-5-5---5-5-5---5---------------------------|
E|-----------------------------------------------------------|


[CHORUS] repeat X 2
e|------9-------9-------9-------9---------4-------4-------4--|
B|------9-------9-------9-------9---------4-------4-------4--|
G|--7-7----7-7-7---7-7-7---7-7-7---7\--2-2---2-2-2---2-2-2---|
D|-----------------------------------------------------------|
A|-----------------------------------------------------------|
E|-----------------------------------------------------------|

e|-------4---------------------------------------------------|
B|-------4--------7-------7-------7-------7-------7-------7--|
G|--2-2-2---2-----7-------7-------7-------7-------7-------7--|
D|-------------5-5---5-5-5---5-5-5---5-5-5---5-5-5---5-5-5---|
A|-----------------------------------------------------------|
E|-----------------------------------------------------------|

[VERSE 2] Repeat X 2
   
e|-----------------------------------------------------------|
B|-----------------------------------------------------------|
G|------14------14------14------14\-----9-----9-----9-----9\-|
D|--9-9-----9—9-----9—9-----9—9---\-6-6---6-6---6-6---7-6--\-|
A|-10-10---10-10---10-10---10-10--\-7-7---7-7---7-7---7-6--\-|
E|-----------------------------------------------------------|

e|-----------------------------------------------------------|
B|-----------------------------------------------------------|
G|----7-------7-------7-------7------------------------------|
D|-4-4---4-4-4---4-4-4---4-4-4---4---------------------------|
A|-5-5---5-5-5---5-5-5---5-5-5---5---------------------------|
E|-----------------------------------------------------------|


[CHORUS]

e|------9-------9-------9-------9---------4-------4-------4--|
B|------9-------9-------9-------9---------4-------4-------4--|
G|--7-7----7-7-7---7-7-7---7-7-7---7\--2-2---2-2-2---2-2-2---|
D|-----------------------------------------------------------|
A|-----------------------------------------------------------|
E|-----------------------------------------------------------|

e|-------4---------------------------------------------------|
B|-------4--------7-------7-------7-------7-------7-------7--|
G|--2-2-2---2-----7-------7-------7-------7-------7-------7--|
D|-------------5-5---5-5-5---5-5-5---5-5-5---5-5-5---5-5-5---|
A|-----------------------------------------------------------|
E|-----------------------------------------------------------|


[VERSE 3] repeat X 2
e|-----9-------9-------9-------9---------4-------4-------4---|
B|-----------------------------------------------------------|
G|--6-6---6-6-6---6-6-6---6-6-6---6\--1-1---1-1-1---1-1-1----|
D|-----------------------------------------------------------|
A|-----------------------------------------------------------|
E|-----------------------------------------------------------|

e|-------4---------------------------------------------------|
B|----------------7-------7-------7-------7------------------|
G|--1-1-1---1------------------------------------------------|
D|-------------4-4---4-4-4---4-4-4---4-4-4---4---------------|
A|-----------------------------------------------------------|
E|-----------------------------------------------------------|

[FILL] repeat X 2   

e|-----------------------------------------------------------|
B|-----------------------------------------------------------|
G|--6-6-6-6-6-6-6-6-6-6-6-6-6-6-6-6-6\--2-2-2-2-2-2-2-2-2-2--|
D|-----------------------------------------------------------|
A|-----------------------------------------------------------|
E|-----------------------------------------------------------|

e|-----------------------------------------------------------|
B|-----------------------------------------------------------|
G|--2-2-2-2-2-2-2-2-2-2-2-2-2-2-2-2-2-2-2-2-2-2--------------|
D|-----------------------------------------------4-4-4-4-4-4-|
A|-----------------------------------------------------------|
E|-----------------------------------------------------------|

e|-----------------------------------------------------------|
B|-----------------------------------------------------------|
G|-----------------------------------------------------------|
D|--4-4-4-4-4-4-4-4-4-4-4------------------------------------|
A|-----------------------------------------------------------|
E|-----------------------------------------------------------|


[OUTRO]

        A        A        A        A            E        E
e|------5--------5--------5--------5------------0--------0---|
B|------5--------5--------5--------5------------0--------0---|
G|--6-6-6--6-6-6-6--6-6-6-6--6-6-6-6--------1-1-1--1-1-1-1---|
D|--7-7-7--7-7-7-7--7-7-7-7--7-7-7-7--------2-2-2--2-2-2-2---|
A|------7--------7--------7--------7------------2--------2---|
E|------5--------5--------5--------5-------------------------|
          E        E         Hm       Hm       Hm      Hm 
e|--------0--------0----------2--------2--------2-------2----|
B|--------0--------0------3-3-3--3-3-3-3--3-3-3-3-3-3-3-3----|
G|--1-1-1-1--1-1-1-1------4-4-4--4-4-4-4--4-4-4-4—4-4-4-4----|
D|--2-2-2-2--2-2-2-2----------4--------4--------4-------4----|
A|--------2--------2----------2--------2--------2-------2----|
E|----------------------------2--------2--------2-------2----|
          D        D        D        D
e|--------3--------3--------3--------3-----------------------|
B|--2-2-2-2--2-2-2-2--3-3-3-2--3-3-3-2-----------------------|
G|--3-3-3-3--3-3-3-3--3-3-3-3--3-3-3-3-----------------------|
D|--------0--------0--------0--------0-----------------------|
A|-----------------------------------------------------------|
E|-----------------------------------------------------------|
            
Submit corrections

↑ Back to top | Tablatures and chords for acoustic guitar and electric guitar, ukulele, drums are parodies/interpretations of the original songs. You may use it for private study, scholarship, research or language learning purposes only