Home » M » Mest »

Mest - Opinions Tabs

Artists:  A B C D E F G H I J K L M N O P Q R S T U V W X Y Z # 

Opinions Tabs

(ver. 2) Click to play this song!
Mest
Mest
Opinions
Transcripted by: Jake Loleit

Guitar 1

|-------|
|-------|
|----11-|  x6
|-9-----|
|-------|
|-------|  

Guitar 2

|------------------------------------|
|------------------------------------|
|------------------------------------|
|----4-----4-------------------------|
|-2-----2--------6-----6-----4-----4-|
|-------------4-----4-----2-----2----|

Guitar 1 & 2

|--------------|
|--------------|
|--------------|
|-2-22222222-2-|
|-2-22222222-2-|
|-0-00000000-0-|
    ........

Verse 1

|------------------------------------|
|------------------------------------|
|-4444444----------------------------|
|-4444444-6666666-22222222-4-6666666-|
|-2222222-6666666-22222222-4-6666666-|
|---------4444444-00000000-2-4444444-|
			    ......

|------------------------------------|
|------------------------------------|
|-4444444----------------------------|
|-4444444-6666666-22222222-4-6666666-|
|-2222222-6666666-22222222-4-6666666-|
|---------4444444-00000000-2-4444444-|
						.....


Chorus

|-----------------------------|
|-----------------------------|
|-444444----------------------| x2
|-444444-222222-666666-444444-|
|-222222-222222-666666-444444-|
|--------000000-444444-222222-|	

Then play 2 times faster


Verse 2

|------------------------------------------|
|------------------------------------------|
|-4----------------------------------------|
|-4-hold-6666666-2222222-4-6666666-222222-6|
|-2------6666666-2222222-4-6666666-222222-6|
|--------4444444-0000000-2-4444444-000000-4|
							......

Chorus

|-----------------------------|
|-----------------------------|
|-444444----------------------| x2
|-444444-222222-666666-444444-|
|-222222-222222-666666-444444-|
|--------000000-444444-222222-|	

Then play 2 times faster


Bridge

|-------------|
|-------------|
|-------44-44-| x4
|-22-22-44-44-|
|-22-22-22-22-|
|-00-00-------|

|----------------|
|----------------|
|------444444444-| x4
|22-22-444444444-|
|22-22-222222222-|
|00-00-----------|

|-----------------------|
|-----------------------|
|-------------pickslide-|
|-2-2222222-------------|
|-2-2222222-------------|
|-0-0000000-------------|
    .......

Chorus

|------------------------------|
|------------------------------|
|-444444-----------------------| 
|-444444-222222-6x6x6x6-444444-|
|-222222-222222-6x6x6x6-444444-|
|--------000000-4x4x4x4-222222-|

|-----------------------------|
|-----------------------------|
|-444444----------------------| 
|-444444-222222-666666-444444-|
|-222222-222222-666666-444444-|
|--------000000-444444-222222-|	

|-----------------|
|-----------------|
|-44--------------|
|-44-2222-66-4444-| x2
|-22-2222-66-4444-|
|----0000-44-2222-|

|---------------------|
|---------------------|
|-4444----------------|
|-4444-2222-6666-4444-| x2
|-2222-2222-6666-4444-|
|------0000-4444-2222-|

then end on

|---|
|---|
|-4-|
|-4-|
|-2-|
|---|



Lyrics

Frustrated with 
what's goinig on
I feel lost
and i don't feel right
tell me what i 
can do to make
them happy
but then will i be happy

i cant do wrong do right
i feel so alone tonight
i wish someone could feel
and understand the way i thing
they've got me on the bring
of self destruction
i wish someone could feel

People surround me
fill my head with opinions
of what they think is right

i cant do wrong do right
i feel so alone tonight
i wish someone could feel
and understand the way i thing
they've got me on the bring
of self destruction
i wish someone could feel

i cant do wrong do right
i feel so alone tonight
i wish someone could feel
and understand the way i thing
you know they've got me on the bring
of self destruction
i wish someone could feel
            
Submit corrections

↑ Back to top | Tablatures and chords for acoustic guitar and electric guitar, ukulele, drums are parodies/interpretations of the original songs. You may use it for private study, scholarship, research or language learning purposes only