Home » M » Mest »

Mest - Opinions Tabs

Artists:  A B C D E F G H I J K L M N O P Q R S T U V W X Y Z # 

Opinions Tabs

(ver. 1) Click to play this song!
Mest

Instrument: Guitar (1st and 2nd)
Tunning: Standard.


Intro. (1st guitar)
E|----------------------- Repeat this 6x
B|-----------------------
G|---------------11~-----
D|----9~-----------------
A|-----------------------
E|-----------------------

Intro. (2nd guitar)
E|----------------------------------------------------------------------------------
B|----------------------------------------------------------------------------------
G|----------------------------------------------------------------------------------
D|--------4~-----------4~-----------------------------------------------------------
A|---2~----------2~---------------6~------------6~--------------4~-------------4~---
E|-------------------------4~------------4~--------------2~-------------2~----------

Note:    ~  <-->  Means to let 
                  the note ring


Pre-verse. (00:20)
Both guitars (Palm Mute)
E|--------------------
B|--------------------
G|--------------------
D|---2-xxxxxxxxxxxx---
A|---2-xxxxxxxxxxxx---
E|---0-xxxxxxxxxxxx---




Verse 1. (00:22)
E|----------------------------------------------------------------------------------
B|----------------------------------------------------------------------------------
G|--4-4-4-4-4-4-4-4-4-4-4-4-4-4-----------------------------------------------------
D|--4-4-4-4-4-4-4-4-4-4-4-4-4-4---6-6-6-6-6-6-6-6-6-6-6-6-6-----4-xxxxxxxxxxxxxxxx--
A|--2-2-2-2-2-2-2-2-2-2-2-2-2-2---6-6-6-6-6-6-6-6-6-6-6-6-6-----4-xxxxxxxxxxxxxxxx--
E|--------------------------------4-4-4-4-4-4-4-4-4-4-4-4-4-----2-xxxxxxxxxxxxxxxx--

 "Frustrated with....         .... what's going on....       ...I Feel lost


E|---------------------------------------------|---------|
B|---------------------------------------------|---------|
G|---------------------------------------------|---------|
D|--4-4----6-6----2-2-2-2-2-2-2-2-2-2-2-2-2-2--|----4----|
A|--4-4----6-6----2-2-2-2-2-2-2-2-2-2-2-2-2-2--|----4----|
E|--2-2----4-4----0-0-0-0-0-0-0-0-0-0-0-0-0-0--|----2----|
     "and   I   don't feel right"



E|----------------------------------------------------------------------------------
B|----------------------------------------------------------------------------------
G|--4-4-4-4-4-4-4-4-4-4-4-4-4-4-----------------------------------------------------
D|--4-4-4-4-4-4-4-4-4-4-4-4-4-4---6-6-6-6-6-6-6-6-6-6-6-6-6-----4-4-4-4-4-4-4-4-4-4-
A|--2-2-2-2-2-2-2-2-2-2-2-2-2-2---6-6-6-6-6-6-6-6-6-6-6-6-6-----4-4-4-4-4-4-4-4-4-4-
E|--------------------------------4-4-4-4-4-4-4-4-4-4-4-4-4-----2-2-2-2-2-2-2-2-2-2-

 "Tell me what I....         .... can do to make....         ...them happy


E|----------------------------------------|---------|
B|----------------------------------------|---------|
G|----------------------------------------|---------|
D|--4-4------6-6----2-xxxxxxxxxxxxxxxxxx--|----4----|
A|--4-4------6-6----2-xxxxxxxxxxxxxxxxxx--|----4----|
E|--2-2------4-4----0-xxxxxxxxxxxxxxxxxx--|----2----|
"but then   will   I be happy?"





Chorus (01:02)  
E|--------------------------------------------------------------------------------------------------------------- Repeat
B|---------------------------------------------------------------------------------------------------------------  2x
A|--4-4-4-4-4-4-4-4-4-4-4-4-4------------------------------------------------------------------------------------
D|--4-4-4-4-4-4-4-4-4-4-4-4-4---2-2-2-2-2-2-2-2-2-2-2-2---6-6-6-6-6-6-6-6-6-6-6-6----4-4-4-4-4-4-4-4-4-4-4-4-4---
A|--2-2-2-2-2-2-2-2-2-2-2-2-2---2-2-2-2-2-2-2-2-2-2-2-2---6-6-6-6-6-6-6-6-6-6-6-6----4-4-4-4-4-4-4-4-4-4-4-4-4---
E|------------------------------0-0-0-0-0-0-0-0-0-0-0-0---4-4-4-4-4-4-4-4-4-4-4-4----2-2-2-2-2-2-2-2-2-2-2-2-2---
 "I can't do wrong, I can't do right..."


then play this 2x.... (01:21or22)

E|-----------------------------------------
B|-----------------------------------------
G|---4-4-----------------------------------
D|---4-4-----2-2-2------6-6-----4-4-4-4----
A|---2-2-----2-2-2------6-6-----4-4-4-4----
E|-----------0-0-0------4-4-----2-2-2-2----



Verse 2 (01:27)

E|------------------|-----------------------------------------------------
B|------------------|-----------------------------------------------------
G|-4--let-ring------|-----------------------------------------------------
D|-4----------------|--6-6-6-6-6-6-6-6-6-6-6---4-4-4-4-4-4-4-4-4-4-4-4----
A|-2----------------|--6-6-6-6-6-6-6-6-6-6-6---4-4-4-4-4-4-4-4-4-4-4-4----
E|------------------|--4-4-4-4-4-4-4-4-4-4-4---2-2-2-2-2-2-2-2-2-2-2-2----
 "People surround...  ...me fill my head       with opinions


E|------------------------------------------------------|
B|------------------------------------------------------|
G|------------------------9-9-9-9-9-9-9-9-9-9-9-9-9-----|
D|--4-4--------6-6--------9-9-9-9-9-9-9-9-9-9-9-9-9-----|
A|--4-4--------6-6--------7-7-7-7-7-7-7-7-7-7-7-7-7-----|
E|--2-2--------4-4--------------------------------------|
 "of what   they think   is right"


E|----------------------------------
B|----------------------------------
G|----------------------------------
D|--2-xxxxxxxxxxxxxxxx---4-4-4-4----
A|--2-xxxxxxxxxxxxxxxx---4-4-4-4----
E|--0-xxxxxxxxxxxxxxxx---2-2-2-2----



Chorus 2 (01:46)

Repeat as same as chorus 1, also with the post-chorus thing 2x



Bridge (02:11)
E|---------------------------- repeat 4x
B|----------------------------
G|----------------4-4---4-4---
D|---2-2---2-2----4-4---4-4---
A|---2-2---2-2----2-2---2-2---
E|---0-0---0-0----------------


At the very ending of the fourth one played, play this

E|-----------------
B|----12-----------
G|----12-bend-up---
D|-----------------
A|-----------------
E|-----------------


E|------------------------------ repeat 4x
B|------------------------------
G|----------------4-4-4-4-4-4---
D|---2-2---2-2----4-4-4-4-4-4---
A|---2-2---2-2----2-2-2-2-2-2---
E|---0-0---0-0------------------



At the very ending of the fourth one played, play this

E|-------------------
B|-------------------
G|-------------------
D|--4-xxxxxxxxxxxxx--
A|--4-xxxxxxxxxxxxx--
E|--2-xxxxxxxxxxxxx--


Chorus 3 (02:33)  2x


Then play:

E|---------------------------- 4 times
B|----------------------------
G|----------------4-4---4-4---
D|---2-2---2-2----4-4---4-4---
A|---2-2---2-2----2-2---2-2---
E|---0-0---0-0----------------


END THE SONG IN:

E|--------
B|--------
G|---4----
D|---4----
A|---2----
E|--------


That is it!! AS you know, a very simple song to play. Any comments or questions or whatever, e-mail please!
Have fun playing this sh*t!
Don't forget to rate iT!!
            
Submit corrections

↑ Back to top | Tablatures and chords for acoustic guitar and electric guitar, ukulele, drums are parodies/interpretations of the original songs. You may use it for private study, scholarship, research or language learning purposes only