» » »

Megadeth - Crown Of Worms Tabs

Artists:  A B C D E F G H I J K L M N O P Q R S T U V W X Y Z # 

Crown Of Worms Tabs

(ver. 1) Click to play this song!
Megadeth
 Rating:
4/5 (4 votes)

 Crown Of Worms lessons Tabs too difficult? Try these video lessons and learn fast
 
                


Eb Tuning

Intro
------------------------------------------------------
------------------------------------------------------
---------------5--------7h8--7-------5---7----------
-7--7--7---7---5---7----7h8--7---7---5---7----7-----
-7--7--7---7-------7-------------7------------7-----
-5--5--5----------------------------------------------

Verse
-----------------------------------------------------
-----------------------------------------------------
-----5---------7---5-------5------------7---5--------
-7---5----7----7---5---7---5------------7---5---7----
-7--------7------------7-------7--6-------------7----
-----------------------------------------------------

-------------------------------------------------
------------------------------------------------
-----5-------7---5-------7---7-------5----------
-4---5---7---7---5---7---7---7---7---5----------
-4-------7-----------7-----------7--------7--6--
------------------------------------------------

Chorus
-------------------------------
-------------------------------
------5---7--------------------
-7----5---7--------------------        
-7---------------7-7-6-6-5-5---
-------------------------------

Outro
-------------------------------------------------------
-------------------------------------------------------
-----8---7-------5---7-------7---5-----------5---------
-7---8---7---5---5---7---7---7---5---7---8---5---8---7-
-7-----------5-----------7-----------7---8-------8---7-
-------------------------------------------------------
            
Submit corrections


        Crown Of Worms lessons Hard to play? Try these video lessons and learn fast Crown Of Worms lessons
        
↑ Back to top | Tablatures and chords for acoustic guitar and electric guitar, ukulele, drums are parodies/interpretations of the original songs. You may use it for private study, scholarship, research or language learning purposes only