Home » M » Megadeth »

Megadeth - A Secret Place Tabs

Artists:  A B C D E F G H I J K L M N O P Q R S T U V W X Y Z # 

A Secret Place Tabs

(ver. 1) Click to play this song!
Megadeth
                ^ - Bend
# - Vibrado 
* - Short note
h - Hammer on
p - Pull off
/ - Slide

Intro 					8 Times
|--------------------------------------------------|
|-4-4-4-3#-------1-1-1-3--------4-4-4-3-6--6-6-8-4-|
|-0-0-0-0--0-0-0-0-0-0-0--0-0-0-0-0-0-0-0--0-0-0-0-|
|--------------------------------------------------|
|--------------------------------------------------|
|--------------------------------------------------|

|---------------------------------------------------------------------|
|---------------------------------------------------------------------|
|-3--3-3/5-5~---------------------------------------------------------|
|-3--3-3/5-5~----5~~---7~~---8~~---7~------------------------7-7-7-7-7|
|-1--1-1/3-3~----5~~---7~~---6~~---5~------------------------5-5-5-5-5|
|--------------x-3~~-x-5~~-x-6~~-x-5~5-5-5-5-5-5-5-5-5-5-5-5-5-5-5-5-5|

|-------|
|-------|
|-------|
|-7-7-7-|
|-5-5-5-|
|-5-5-5-|
Verse						3 Times 
|------------------------------------------------------|
|---------------------------------1---4-1---1-2----2-1-|
|-----------3-------------3-----3---3-----3-----3------|
|--0-3-5#-0---5#-0-3-5#-0---5#5------------------------|
|------------------------------------------------------|
|------------------------------------------------------|
						1 Time
|------------------------------------------------------|
|---------------------------------1---4-1---1-2----2-3-|
|-----------3-------------3-----3---3-----3-----3------|
|--0-3-5#-0---5#-0-3-5#-0---5#5------------------------|
|------------------------------------------------------|
|------------------------------------------------------|
Chorus ("Theres a Secret Place!...")		6 Times
|--------------------------------------------------|
|-4-4-4-3#-------1-1-1-3--------4-4-4-3-6--6-6-8-4-|
|-0-0-0-0--0-0-0-0-0-0-0--0-0-0-0-0-0-0-0--0-0-0-0-|
|--------------------------------------------------|
|--------------------------------------------------|
|--------------------------------------------------|
Bridge ("Let me in get me out...")	2 Times
|------------------------------------------------|
|------------------------------------------------|
|--------------5~~-8~7---------------------------|
|--5~~---3~~---5~~-8~7-6-5~~-3~~-8~~-7~----------|
|--5~~---3~~---3~~-6~5-6-5~~-3~~-6~~-5~----------|
|--3~~-x-1~~-x---------4-3~~-1~~-6~~-5~5-5-5-555-|

Rythm Guitar: Does Verse
Lead Guitar: Does Solo

Outro				3 Times
|-----------------------------------|
|-----------------------------------|
|-----------------------------------|
|-----------------------------------|
|--5~-6-5---3-5-------6-5---3-5-/8--|
|--3~-----3-----6-5-3-----3-----/6--|
				1 Time
|----------------------------------------|
|----------------------------------------|
|----------------------------------------|
|----------------------------------------|
|--5~-6-5---3-5-------6-5---3-5-/8-7-5/--|
|--3~-----3-----6-5-3-----3-----/6-5-3/--|

Lyrics 

There's a secret place I like to go,
Everyone is there but their face don't show,
If you get inside you can't get out,
There's no coming back, I hear them shout.

Welcome to my hide away, my secret place,
How I arrived i can't explain,
You're welcome to, if you want to stay,
But everyone just runs away.

There's a secret place I like to go,
Everyone is there but their face don't show,
If you get inside you can't get out,
There's no coming back, I hear them shout.

Let me in, get me out,
Can't to more than twist and shout, 
Lost my soul without a trace, 
Found it again in my secret place.

Let me in, get me out,
Can't to more than twist and shout, 
Lost my soul without a trace, 
Found it again in my secret place.
In disgrace!

I hide from those that try to find me,
Scary things that's right beside me,
I lost myself, I must confess,
I can't explain how i got this mess.
            
Submit corrections

↑ Back to top | Tablatures and chords for acoustic guitar and electric guitar, ukulele, drums are parodies/interpretations of the original songs. You may use it for private study, scholarship, research or language learning purposes only