» » »

Megadeth - Good Morning/Black Friday Tabs

Artists:  A B C D E F G H I J K L M N O P Q R S T U V W X Y Z # 

Good Morning/Black Friday Tabs

(ver. 1) Click to play this song!
Megadeth
 Rating:
3.4/5 (5 votes)

 Good Morning/Black Friday lessons Tabs too difficult? Try these video lessons and learn fast
 
                Good Mourning/Black Friday
intro without lead guitar
|-----4-----0---4-----4-----0---------4-----0---------------3-------|
|---4---4-4---4-----4---4-4---4-----4---4-4---4---------------4-----|
|-----------------4-------------------------------------3-------6-4-|
|-6-----------------------------642-------------2-4---5---5---------|
|---------------------------------------------------4------(0)------|
|-------------------------------------------------------------------|

|-----6----------11-|
|---5---5---8-11----|
|-6-------9---------|
|-------------------|
|-------------------|
|-------------------|       |(at the second time this note is 5)
                            *
|-----4---0---4-------4---4-------4---0---4-------4-----4-----4-----3-| play
|---4---4---4-------4---5---4---4---4---4-------4---5-4-----4-----4---| this
|-6---------------3-----------4-------------4-6-----------4-----3-----| four 
|---------------6-----------------------------------------------------|times
|---------------------------------------------------------------------|
|---------------------------------------------------------------------|

|---------11-9-7-----------7-6-9---|
|-------9--------9-------8-------8-|
|---8----------------8-------------|
|-9---9------------8---8-----------|
|----------------------------------|play this
|(7)--------------(6)--------------|twice
            _____   ___
|---------5-3h5p3---5/7-----7---(8)_____------------------------|
|-5---5-7---------7-----7-7---10-8-7h8p7-----8------8-10-8------|
|---4-------------------8----------------9-7-9-9-11--------11-9-|
|------------------------------------------8-10-----------------|
|---------------------------------------------------------------|
|---------------------------------------------------------------|
                                       _____
|--------------______------|---------5-3h5p3---5/7-----7----------------|
|-7-----7-8-10-8h10p8-7\---|-5-5-5-7---------7-----7-7---10-8-7h8p7---6-|
|-8-8-9--------------------|-4---------------------8----------------9-7-|
|-9--------------------(00)|------------------------------------------8-|
|--------------------------|--------------------------------------------|
|--------------------------|--------------------------------------------|
                                            _____
|----------------------------------_____-11-11/12v---|
|--8------8-10-8----8-7-----7-8-10-10/12-------------|
|--9-9-11--------11-9-8-8-9--------------------------|
|-10------------------9------------------------------|
|----------------------------------------------------|
|----------------------------------------------------|

distorted guitars
|---------------------------------------------------|
|---------------------------------------------------|
|------9-9---9------9-9---9-----9-9---9-----9-9---9-|
|----9-----9------9-----9-----9-----9-----9-----9---|
|---------------------------9-----------9-----------|
|-12-----------12-----------------------------------|

|------------------------------------------------------|
|------------------------------------------------------|
|------9-9---9-----9-9---9----9----9-------------------|
|----9-----9-----9-----9-------------------------------|
|-10----------10-----------12---10---9---10---9v-------|
|-------------------------------------------------10---|

|-------------------------------------------------|
|-------------------------------------------------|
|------9-9---9------9-9---9------9-9---9------9-9-|
|----9-----9------9-----9------9-----9------9-----|
|-------------------------------------------------|
|-12-----------12-----------10-----------10-------|

|--------------------------------------------------|
|--------------------------------------------------|
|--------------------------------------------------|
|---------------------------5-----7-----9-----11---|
|-10----------7-5-------7-5-3-----5-----7-----9----|
|----10-8---------7--------------------------------|
...
            
Submit corrections


        Good Morning/Black Friday lessons Hard to play? Try these video lessons and learn fast Good Morning/Black Friday lessons
        
↑ Back to top | Tablatures and chords for acoustic guitar and electric guitar, ukulele, drums are parodies/interpretations of the original songs. You may use it for private study, scholarship, research or language learning purposes only