Home » M » Megadeth »

Megadeth - A Secret Place Tabs

Artists:  A B C D E F G H I J K L M N O P Q R S T U V W X Y Z # 

A Secret Place Tabs

(ver. 2) Click to play this song!
Megadeth


Standard Tuning

INTRO
-------------------------------------------------------------|
-4-4-4-3---------1-1-1-3---------4-4-4-3---6-6-6/8-4---------|
-0-0-0-0-0-0-0-0-0-0-0-0-0-0-0-0-0-0-0-0-0-0-0-0-0-0-0-0-0-0-|
-------------------------------------------------------------|
-------------------------------------------------------------|
-------------------------------------------------------------|

-------------------------------------------------------------|
-4-4-4-3---------1-1-1-3---------4-4-4-3---6-6-6/4-4---------|
-0-0-0-0-0-0-0-0-0-0-0-0-0-0-0-0-0-0-0-0-0-0-0-0-0-0-0-0-0-0-|
-------------------------------------------------------------|
-------------------------------------------------------------|
-------------------------------------------------------------|

-------------|
-------------|
---3-33/5-5--|
---3-33/5-5--|
---1-11/3-3--|
-------------|

-----------------------------------------------------|
-----------------------------------------------------|
-----------------------------------------------------|
--5-----3-----1-----0--------------------------------|
--5-----3-----1-----0--0-0-0-0-0-0-0-0-0-0-0-0-0-0-0-|
--3-----1--------------------------------------------|


VERSE
-------------------------------------------------------------|
-4-4-4-3---------1-1-1-3---------4-4-4-3---6-6-6/8-4---------|
-0-0-0-0-0-0-0-0-0-0-0-0-0-0-0-0-0-0-0-0-0-0-0-0-0-0-0-0-0-0-|
-------------------------------------------------------------|
-------------------------------------------------------------|
-------------------------------------------------------------|

-------------------------------------------------------------|
-4-4-4-3---------1-1-1-3---------4-4-4-3---6-6-6/4-4---------|
-0-0-0-0-0-0-0-0-0-0-0-0-0-0-0-0-0-0-0-0-0-0-0-0-0-0-0-0-0-0-|
-------------------------------------------------------------|
-------------------------------------------------------------|
-------------------------------------------------------------|


PRE-CHORUS
-------------|
-------------|
---3-33/5-5--|
---3-33/5-5--|
---1-11/3-3--|
-------------|

-----------------------------------------------------|
-----------------------------------------------------|
-----------------------------------------------------|
--5-----3-----1-----0--------------------------------|
--5-----3-----1-----0--0-0-0-0-0-0-0-0-0-0-0-0-0-0-0-|
--3-----1--------------------------------------------|

-------------|
-------------|
---3-33/5-5--|
---3-33/5-5--|
---1-11/3-3--|
-------------|

------------------------------------------------------|
------------------------------------------------------|
-----------5---8---7----------------------------------|
-5----3----5---8---7--6--5----3----1---0--------------|
-5----3----3---6---5--6--5----3----1---0--0-0-0-0-0-0-|
-3----1---------------4--3----1-----------------------|


SOLO RHYTHM
--------------------------------------------|
--------------------------------------------|
-3-3-3-2---------0-0-0-2---------3-3-3-2----|
-0-0-0-0--0-0-0--0-0-0-0--0-0-0--0-0-0-0----|
--------------------------------------------|
--------------------------------------------|

-------------------------------------|
-------------------------------------|
----5----5-5-p-3--3------------------|
-0--0-0--0-0------0--0-0-0-0---------|
-------------------------------------|
-------------------------------------|

--------------------------------------------|
--------------------------------------------|
-3-3-3-2---------0-0-0-2---------3-3-3-2----|
-0-0-0-0--0-0-0--0-0-0-0--0-0-0--0-0-0-0----|
--------------------------------------------|
--------------------------------------------|

--------------------------------|
--------------------------------|
----5----5-5-h-7--3-------------|
-0--0-0--0-0------0--0-0-0-0----|
--------------------------------|
--------------------------------|

-------------------------------------------|
-------------------------------------------|
-3-3-3-2---------0-0-0-2---------3-3-3-2---|
-0-0-0-0--0-0-0--0-0-0-0--0-0-0--0-0-0-0---|
-------------------------------------------|
-------------------------------------------|

-------------------|
-------------------|
-------------------|
--3-3--3-/-5--5----|
--1-1--1-/-3--3----|
-------------------|


CHORUS
--------------------------------------------------------------|
-------------------------------------------4------1-2----2-1--|
-----------3---------------3-----0-3-5---0---5--0------0------|
-0-3-5---0---5---0-3-5---0---5--------------------------------|
--------------------------------------------------------------|
--------------------------------------------------------------|

--------------------------------------------------------------|
-------------------------------------------4------1-2----2-3--|
-----------3---------------3-----0-3-5---0---5--0------0------|
-0-3-5---0---5---0-3-5---0---5--------------------------------|
--------------------------------------------------------------|
--------------------------------------------------------------|


OUTRO
-----------------------------------------------------------|
-----------------------------------------------------------|
-----------------------------------------------------------|
-----------------------------------------------------------|
---6-5-3-5-------6-5-3-5-8-5---6-5-3-5-------6-5-3-5-8-5---|
-3----3----6-5-3----3----6-3------3----6-5-3----3----6-3---|


-----------------------------------------------------------|
-----------------------------------------------------------|
-----------------------------------------------------------|
-----------------------------------------------------------|
---6-5-3-5-------6-5-3-5-8-5---6-5-3-5-------6-5-3-5-8-7-5-|
-3----3----6-5-3----3----6-3------3----6-5-3----3----6-5-3-|
            
Submit corrections

↑ Back to top | Tablatures and chords for acoustic guitar and electric guitar, ukulele, drums are parodies/interpretations of the original songs. You may use it for private study, scholarship, research or language learning purposes only