» » »

Megadeth - Anarchy In The Uk Tabs

Artists:  A B C D E F G H I J K L M N O P Q R S T U V W X Y Z # 

Anarchy In The Uk Tabs

(ver. 1) Click to play this song!
Megadeth
 Rating:
4/5 (4 votes)

 Anarchy In The Uk lessons Tabs too difficult? Try these video lessons and learn fast
 
                
Standard Tuning

Intro
-5----------------------------------------3---------------2-------7--7---------
-5----------------------------------------3---------------2-------5--5---------
-3--3-3-3-3-3-3-3-3-3-3-3-3-3-3-3-3-3333--1--1-1-1-1-1-1--0--0-0---------------

Verse
-5-------------------------10\9-\-5-------------------------10\9-\-5--
-5-------------------------10\9-\-5-------------------------10\9-\-5--
-3--3-3-3-3-3-3-3-3-3-3-3---8\7-\-3--3-3-3-3-3-3-3-3-3-3-3---8\7-\-3--
				Chorus
------------------------5-------------------------------3---------------2-------7--7-
-3-3-3-3-3-3-3-3-3-3-3--5-------------------------------3---------------2-------5--5-
------------------------3--3-3-3-3-3-3-3-3-3-3-3-3-3-3--1--1-1-1-1-1-1--0--0-0-------


1st solo rhythm
---------------------------------------------------------5---5-----5---5-------
-55555555-77777777-55555555-77777777-55555555--77777777--5---5-----5---5-------
---------------------------------------------------------3---3-----3---3-------
            
Submit corrections


        Anarchy In The Uk lessons Hard to play? Try these video lessons and learn fast Anarchy In The Uk lessons
        
↑ Back to top | Tablatures and chords for acoustic guitar and electric guitar, ukulele, drums are parodies/interpretations of the original songs. You may use it for private study, scholarship, research or language learning purposes only