» » »

Mayday Parade - Without The Bitter The Sweet Isnt As Sweet Tabs

Artists:  A B C D E F G H I J K L M N O P Q R S T U V W X Y Z # 

Without The Bitter The Sweet Isnt As Sweet Tabs

(ver. 1) Click to play this song!
Mayday Parade
 Rating:
4.3/5 (16 votes)

 Without The Bitter The Sweet Isnt As Sweet lessons Tabs too difficult? Try these video lessons and learn fast
 
                [Intro]

e|-------------------------------------------|
B|-------------------------------------------|
G|-4/6-4~-6/8-6-4-6-----4-4-4---8-6-4-6-4----|
D|------------------4h6-------6-----------6~-|
A|-------------------------------------------|
E|-------------------------------------------|


[Verse]

e|---------------------------------------------|
B|----4~-----------2~-----------0~------0~-----|
G|------4-4------4---4-4------1---1-1-1---1-1--| 3x
D|----------------4---4--------2---2---2---2---|
A|--6----6------2------------------------------|
E|-4-4-----------------------0-----------------|

e|---------------------------------------------|
B|----4~-----------2~-----------2~------2~-----|
G|------4-4------4---4-4------3---3-3-3---3-3--| 
D|----------------4---4--------4---4---4---4---|
A|--6----6------2------------------------------|
E|-4-4-----------------------2-----------------|


[Pre-Chorus]

e|------------0~-------------------------------|
B|----0~--------0-0--------4~-----------2~-----|
G|--1---1-1-1----1-----------4-4------3---3-3--| 3x
D|---2---2---2-------------------------4---4---|
A|-----------------------6----6----------------|
E|-0--------------------4-4----------2---------|

e|-----------0~--------------------------------|
B|----0~-------0-0--------2~-------------------|
G|--1---1-1-1---1-------3---3-3~---------------| 
D|---2---2---2-----------4---4-----------------|
A|---------------------------------------------|
E|-0-------------------2-----------------------|


[Bridge]

e|------------------------------------|
B|------------------------------------|
G|-4-4-3-4----------------------------| 2x
D|-4-4-3-4---------1------------------|
A|-2-2-1-2----1-2-4-4-2-1-------------|
E|------------------------------------|

e|------------------------------------|
B|------------------------------------|
G|------------------------------------|
D|-6-6-6-6---------1---------2-2-2-2--|
A|-6-6-6-6----1-2-4-4-2-1----2-2-2-2--|
E|-4-4-4-4-------------------0-0-0-0--|


[Chorus] (listen to song for strumming pattern)

e|-----------------------------------|
B|-----------------------------------|
G|-4---4-3------------4---4-3--------|
D|-4---4-3--6--2------4---4-3--6--4--|
A|-2---2-1--6--2------2---2-1--6--4--|
E|----------4--0---------------4--2--|

e|----------------------------|
B|----------------------------|
G|----------------------------|3x
D|-2----6----4----------------|
A|-2----6----4----------------|
E|-0----4----2----------------|

e|----------------------------|
B|----------------------------|
G|----------------------------|
D|-2----4---------------------|
A|-2----4---------------------|
E|-0----2---------------------|


[Outro]

e|----------------------------------|
B|----------------------------------|
G|-4-4-3-4--------------------------| 2x
D|-4-4-3-4--------1-----------------|
A|-2-2-1-2---1-2-4-4-2-1------------|
E|----------------------------------|

e|----------------------------------|
B|----------------------------------|
G|----------------------------------|
D|-6-6-6-6--------1--------2-2-2-2--|
A|-6-6-6-6---1-2-4-4-2-1---2-2-2-2--|
E|-4-4-4-4-----------------0-0-0-0--|            
Submit corrections


        Without The Bitter The Sweet Isnt As Sweet lessons Hard to play? Try these video lessons and learn fast Without The Bitter The Sweet Isnt As Sweet lessons
        
↑ Back to top | Tablatures and chords for acoustic guitar and electric guitar, ukulele, drums are parodies/interpretations of the original songs. You may use it for private study, scholarship, research or language learning purposes only