Home » M » Mayday Parade »

Mayday Parade - The Problem With The Big Picture Is That Its Hard To See Tabs

Artists:  A B C D E F G H I J K L M N O P Q R S T U V W X Y Z # 

The Problem With The Big Picture Is That Its Hard To See Tabs

(ver. 1) Click to play this song!
Mayday Parade
 Rating:
4.3/5 (19 votes)
                [Intro] 
e|---------------------------|--------------------------|---------------------------|
B|----3-----------3----------|----3-----------3---------|----3-----------3----------|
G|------0-----0-----0------0-|------0-----0-----0-----0-|------0-----0-----0------0-|
D|--------2-----------2------|--------4-----------4-----|--------2-----------2------|
A|--3-------3---3--------3---|--5-------5---5-------5---|--3-------3---3--------3---|
E|---------------------------|--------------------------|---------------------------|
    C           C               D           D              C           C

e|--------------------------|
B|------3-----------3-------|
G|----0---0-------0---0-----|
D|--2-------2h4/5-----------|
A|-----------------------5--|
E|--------------------------|
    Em        G

[Verse 1] 
e|---------------------------|--------------------------|---------------------------|
B|----3-----------3----------|----3-----------3---------|----3-----------3----------|
G|------0-----0-----0------0-|------0-----0-----0-----0-|------0-----0-----0------0-|
D|--------2-----------2------|--------4-----------4-----|--------2-----------2------|
A|--3-------3---3--------3---|--5-------5---5-------5---|--3-------3---3--------3---|
E|---------------------------|--------------------------|---------------------------|
       You...                   go,   I know...            told...      
    C           C               D           D              C           C

e|--------------------------|
B|------3-----------3-------|
G|----0---0-------0---0-----|
D|--2-------2h4/5-----------|
A|-----------------------5--|
E|--------------------------|
    I...
    Em          G

e|---------------------------|--------------------------|---------------------------|
B|----3-----------3----------|----3-----------3---------|----3-----------3----------|
G|------0-----0-----0------0-|------0-----0-----0-----0-|------0-----0-----0------0-|
D|--------2-----------2------|--------4-----------4-----|--------2-----------2------|
A|--3-------3---3--------3---|--5-------5---5-------5---|--3-------3---3--------3---|
E|---------------------------|--------------------------|---------------------------|
       enough...                point...                   Florida...
    C           C               D           D              C           C

e|--------------------------|
B|------3-----------3-------|
G|----0---0-------0---0-----|
D|--2-------2h4/5-----------|
A|-----------------------5--|
E|--------------------------|
    forever...
    Em          G

[PreChorus 1] 
e|---------------------------|--------------------------|---------------------------|
B|----3-----------3----------|----3-----------3---------|-------3-----------3-------|
G|------0-----0-----0------0-|------0-----0-----0-----0-|-----0---0---0---0---0---0-|
D|--------2-----------2------|--------4-----------4-----|---2-------2---2-------2---|
A|--3-------3---3--------3---|--5-------5---5-------5---|---------------------------|
E|---------------------------|--------------------------|---------------------------|
       Let's...                 land...                    sea...       hit...
    C           C               D           D              Em           Em

e|--------------------------|
B|------3----------3--------|
G|----0---0---0--0---0------|
D|--5-------5---5-----------|
A|---------------------5----|
E|--------------------------|
    don't...  
    G          G

e|---------------------------|--------------------------|---------------------------|
B|----3-----------3----------|----3-----------3---------|-------3-----------3-------|
G|------0-----0-----0------0-|------0-----0-----0-----0-|-----0---0---0---0---0---0-|
D|--------2-----------2------|--------4-----------4-----|---2-------2---2-------2---|
A|--3-------3---3--------3---|--5-------5---5-------5---|---------------------------|
E|---------------------------|--------------------------|---------------------------|
    take us, I was...           light...                   see          it
    C           C               D           D              Em           Em

G(hold)
I need you to find me


[Chorus 1]
G            D                   C          
  I said I'm sorry, but I wasn't sorry enough
        C        
To give back what you gave me
Em           D                    C
  I got to you fast, but not fast enough
        C                         
I know the reason you're always afraid

[Interlude (same as intro)] 
e|---------------------------|--------------------------|---------------------------|
B|----3-----------3----------|----3-----------3---------|----3-----------3----------|
G|------0-----0-----0------0-|------0-----0-----0-----0-|------0-----0-----0------0-|
D|--------2-----------2------|--------4-----------4-----|--------2-----------2------|
A|--3-------3---3--------3---|--5-------5---5-------5---|--3-------3---3--------3---|
E|---------------------------|--------------------------|---------------------------|
    C           C               D           D              C           C

e|--------------------------|
B|------3-----------3-------|
G|----0---0-------0---0-----|
D|--2-------2h4/5-----------|
A|-----------------------5--|
E|--------------------------|
    Em        G

[Verse 2] 
e|---------------------------|--------------------------|---------------------------|
B|----3-----------3----------|----3-----------3---------|----3-----------3----------|
G|------0-----0-----0------0-|------0-----0-----0-----0-|------0-----0-----0------0-|
D|--------2-----------2------|--------4-----------4-----|--------2-----------2------|
A|--3-------3---3--------3---|--5-------5---5-------5---|--3-------3---3--------3---|
E|---------------------------|--------------------------|---------------------------|
       A...                    love,   laughter and        movement...      
    C           C               D           D              C           C

e|--------------------------|
B|------3-----------3-------|
G|----0---0-------0---0-----|
D|--2-------2h4/5-----------|
A|-----------------------5--|
E|--------------------------|
    struggle...
    Em          G

e|---------------------------|--------------------------|---------------------------|
B|----3-----------3----------|----3-----------3---------|----3-----------3----------|
G|------0-----0-----0------0-|------0-----0-----0-----0-|------0-----0-----0------0-|
D|--------2-----------2------|--------4-----------4-----|--------2-----------2------|
A|--3-------3---3--------3---|--5-------5---5-------5---|--3-------3---3--------3---|
E|---------------------------|--------------------------|---------------------------|
       once...                 while...                   fire...
    C           C               D           D              C           C

e|--------------------------|
B|------3-----------3-------|
G|----0---0-------0---0-----|
D|--2-------2h4/5-----------|
A|-----------------------5--|
E|--------------------------|
    I'm so afraid to lose
    Em          G

[PreChorus 2] 
e|---------------------------|--------------------------|---------------------------|
B|----3-----------3----------|----3-----------3---------|-------3-----------3-------|
G|------0-----0-----0------0-|------0-----0-----0-----0-|-----0---0---0---0---0---0-|
D|--------2-----------2------|--------4-----------4-----|---2-------2---2-------2---|
A|--3-------3---3--------3---|--5-------5---5-------5---|---------------------------|
E|---------------------------|--------------------------|---------------------------|
       I hope I                 land, where...            be...      
    C           C               D           D              Em           Em

e|--------------------------|
B|------3----------3--------|
G|----0---0---0--0---0------|
D|--5-------5---5-----------|
A|---------------------5----|
E|--------------------------|
    magic...  
    G          G

e|---------------------------|--------------------------|---------------------------|
B|----3-----------3----------|----3-----------3---------|-------3-----------3-------|
G|------0-----0-----0------0-|------0-----0-----0-----0-|-----0---0---0---0---0---0-|
D|--------2-----------2------|--------4-----------4-----|---2-------2---2-------2---|
A|--3-------3---3--------3---|--5-------5---5-------5---|---------------------------|
E|---------------------------|--------------------------|---------------------------|
    take us, you were my        soul...                   feel you
    C           C               D           D              Em           Em

G(hold)
You said that you would find me

[Chorus2]
G            D                   C          
  I said I'm sorry, but I wasn't sorry enough
        C        
To give back what you gave me
Em           D                    C
  I got to you fast, but not fast enough
        C                         
I know the reason you're always afraid


[Bridge]
Em(hold)  -   D(hold) -  C  -  C
Em - D - C - C
        Em            D
May you find what you need
       C                      C
In the darkest tunnel so deep down
        Em(hold)  D
May you hold onto me
       C                    C  
Just at least another time around


[Chorus3]
G            D                   C          
  I said I'm sorry, but I wasn't sorry enough
        C        
To give back what you gave me
Em           D                    C
  I got to you fast, but not fast enough
        C                         
I know the reason you're always afraid

[Outro]
G - D - C - C        
Em - D - C(hold)                         
            
Submit corrections

↑ Back to top | Tablatures and chords for acoustic guitar and electric guitar, ukulele, drums are parodies/interpretations of the original songs. You may use it for private study, scholarship, research or language learning purposes only