» » »

Mayday Parade - Sorry Not Sorry Tabs

Artists:  A B C D E F G H I J K L M N O P Q R S T U V W X Y Z # 

Sorry Not Sorry Tabs

(ver. 1) Click to play this song!
Mayday Parade
 Rating:
4/5 (4 votes)

 Sorry Not Sorry lessons Tabs too difficult? Try these video lessons and learn fast
 
                (Intro)


eb|-----------7----------------0-------------------|
Bb|---0h5-7h5---5-7-5-7--0h5-7---7h9h7-7-5-0-5-----|
Gb|------------------------------------------------|
Db|------------------------------------------------|
Ab|------------------------------------------------|
Eb|------------------------------------------------|

eb|-----------7----------------0--------7-4-4h5-2-0|
Bb|---0h5-7h5---5-7-5-7--0h5-7---7h9h7-------------|
Gb|------------------------------------------------|
Db|------------------------------------------------|
Ab|------------------------------------------------|
Eb|------------------------------------------------|

Rate and comment please thank you !!
            
Submit corrections


        Sorry Not Sorry lessons Hard to play? Try these video lessons and learn fast Sorry Not Sorry lessons
        
↑ Back to top | Tablatures and chords for acoustic guitar and electric guitar, ukulele, drums are parodies/interpretations of the original songs. You may use it for private study, scholarship, research or language learning purposes only