» » »

Mayday Parade - Satellite Tabs

Artists:  A B C D E F G H I J K L M N O P Q R S T U V W X Y Z # 

Satellite Tabs

(ver. 1) Click to play this song!
Mayday Parade
 Rating:
4.3/5 (26 votes)

 Satellite lessons Tabs too difficult? Try these video lessons and learn fast
 
                [Verse 1]

Guitar 1
e|----------------------------------------------------------8x-|-------------------------|
B|-------------------------------------------------------------|-------------------------|
G|-------------------------------------------------------------|-12-12-12-12-12-12-12-12-|
D|-3-3-3-3-3-3/5-5-5-5-5-5-5-5-5\2-2-2-2-2-2/3-3-3-3-3-3-3-3-3-|-10-10-10-10-10-10-10-10-|
A|-------------------------------------------------------------|-8--8--8--8--8--8--8--8--|
D|-------------------------------------------------------------|-------------------------|
   * * * * * * * * * * * * * * * * * * * * * * * * * * * * * *
Guitar 2
e||----------------------------------------3x-|--------------------------------------||-------------|
B||o------------------------------------------|----------------------------10-10-10-o||-------------|
G||-----12------12--12-------12----12-12-12---|-12------12--12-------12----12-12-12--||-------------|
D||-----10------10--10-------10----10-10-10---|-10------10--10-------10----10-10-10--||---(pause)---|
A||o------------------------------------------|-------------------------------------o||-------------|
D||-------------------------------------------|--------------------------------------||-------------|

Guitar 3 (piano & clean guitar, 00:37)
e|--------------------------0~------------|-----------------------------------------------------------------|
B|-13~---8~----12~----10-12-13~---8~--10~-|--13~-------------------12~----------------------12~-------------|
G|-9~----5~----7~-----------------5~--7~--|-----------------14~----------12~---14~---------------12~----14~-|
D|--------------------10-12---------------|-----------------------------------------------------------------|
A|----------------------------------------|-----------------------------------------------------------------|
D|----------------------------------------|-----------------------------------------------------------------|
                                              ^fade in, ring out
[Chorus]

Guitar 1
e|-----------------2x-|-------------------------------------------|
B|--------------------|-------------------------------------------|
G|--------------------|-------------------------------------------|
D|-3-----5-----7------|-3-----5-----2-----3-----3-----5-----7~----|
A|-3--x8-5--x8-7--x16-|-3--x8-5--x8-2--x8-3--x8-3--x8-5--x8-7~----|
D|-3-----5-----7------|-3-----5-----2-----3-----3-----5-----7~----|

Guitar 2
e|----------------------------------------------------------------------|
B|---13--13--13--13--15--15--15--15-----13--12--13--12--13--12\10-10-10-|
G|-14------14------16------16------16-16--16--16--16--16--16------12-12-|
D|-----15------15------17------17---------------------------------------|
A|----------------------------------------------------------------------|
D|----------------------------------------------------------------------|

e|-----------------------------------|--------------------------------------|----------------------||
B|---13--13--13--13--15--15--15--15--|------13--12--13--12--13--12\10-10-10-|-13-------------------||
G|-14------14------16------16--------|-16-16--16--16--16--16--16------12-12-|-16b17--x16-----------||
D|-----15------15------17------17----|--------------------------------------|----------------------||
A|-----------------------------------|--------------------------------------|----------------------||
D|-----------------------------------|-----------------------------1./2./3.-|-------------------4.-||
                                                                              ^gradual bend
[Verse 2]

Guitar 1
e|----------------------------------------------------------8x-|
B|-------------------------------------------------------------|
G|-------------------------------------------------------------|
D|-3-3-3-3-3-3/5-5-5-5-5-5-5-5-5\2-2-2-2-2-2/3-3-3-3-3-3-3-3-3-|
A|-------------------------------------------------------------|
D|-------------------------------------------------------------|
   * * * * * * * * * * * * * * * * * * * * * * * * * * * * * *
Guitar 2
e|----------------------------------------3x-|-------------------------------------|
B|-------------------------------------------|----------------------------10-10-10-|
G|-----12------12--12-------12----12-12-12---|-12------12--12-------12----12-12-12-|
D|-----10------10--10-------10----10-10-10---|-10------10--10-------10----10-10-10-|
A|-------------------------------------------|-------------------------------------|
D|-------------------------------------------|-------------------------------------|
            V delay                      V delay  
e|----------2x-|--------------------------|------------------------------------------------------------------|
B|-xx-x--x-13~-|--------------------------|-10----10----10--12----12----12---8-----8-----8--10p8--10p8--10p8-|
G|-------------|-121212-12-12-10-10-10-9~-|---1010--1010--10--1212--1212--12---9-9---9-9---9-----9-----9-----|
D|-------------|--------------------------|------------------------------------------------------------------|
A|-------------|--------------------------|------------------------------------------------------------------|
D|-------------|--------------------------|---------------------------------------------------------------2x-|

Guitar 3 (piano & clean guitar)
e|-------------------------------------------|--------------------------0~------------|---------------|
B|-------------------------------------------|-13~---8~----12~----10-12-13~---8~--10~-|---------------|
G|-9~----5~----7~-----5--7--9~----5~--7~--5~-|-9~----5~----7~-----------------5~--7~--|---(silence)---|
D|-------------------------------------------|--------------------10-12---------------|---------------|
A|-------------------------------------------|----------------------------------------|---------------|
D|-------------------------------------------|----------------------------------------|---------------|

[Chorus 2]

Guitar 1
e|-----------------2x-|--------------------------------------------|
B|--------------------|--------------------------------------------|
G|--------------------|--------------------------------------------|
D|-3-----5-----7------|-3-----5-----2-----3-----3-----5-----7------|
A|-3--x8-5--x8-7--x16-|-3--x8-5--x8-2--x8-3--x8-3--x8-5--x8-7--x16-|
D|-3-----5-----7------|-3-----5-----2-----3-----3-----5-----7------|

Guitar 2
e|-------------------------------------------------------|-----------------|-xx-12~-xx-12~-xx-12~-||
B|---13--13--13--13--15--15--15--15-----13--12--13--12---|-13--12\10-10-10-|----------------------||
G|-14------14------16------16------16-16--16--16--16--16-|---16------12-12-|----------------------||
D|-----15------15------17------17------------------------|-----------------|----------------------||
A|-------------------------------------------------------|-----------------|----------------------||
D|-------------------------------------------------------|--------1./2./3.-|-------------------4.-||

[SOLO]

Guitar 1
e|---------------------------------------------------------------------------------------|
B|---------------------------------------------------------------------------------------|
G|---------------------------------------------------------------------------------------|
D|-3-----5-----7------3-----5-----7------3-----5-----2-----3-----3-----5-----7-----------|
A|-3--x8-5--x8-7--x16-3--x8-5--x8-7--x16-3--x8-5--x8-2--x8-3--x8-3--x8-5--x8-7--x16------|
D|-3-----5-----7------3-----5-----7------3-----5-----2-----3-----3-----5-----7-----------|

Guitar 2
e|---------------------------------|---------------2x-|------------------------------------------17h19-||
B|-17p15--15~-13--------13---------|-17p15--15~-13----|-12p13-15-13p15-17-15p17-18-17h18-20-18h20------||
G|------17------14-12-14--14--14~--|------17------14~-|------------------------------------------------||
D|---------------------------------|------------------|------------------------------------------------||
A|---------------------------------|------------------|------------------------------------------------||
D|---------------------------------|---------------1.-|---------------------------------------------2.-||

e|-20--x8-19--x8-20-20-19-19-20-20-19--17~-171717--17~\-17\-|-----------------------------------------------|
B|-17-----15-----17-17-15-15-17-17-15--13~-131313--13~\-13\-|-17-13-13-17-13-13-15-13-13-15-13-17-15-13-13~-|
G|----------------------------------------------------------|-----------------------------------------------|
D|----------------------------------------------------------|-----------------------------------------------|
A|----------------------------------------------------------|-----------------------------------------------|
D|----------------------------------------------------------|--------------------------------------------2x-|

[Final Chorus]

Guitar 1
e|-----------------2x-|--------------------------------------------|-----------------2x-|
B|--------------------|--------------------------------------------|--------------------|
G|--------------------|--------------------------------------------|--------------------|
D|-3-----5-----7------|-3-----5-----2-----3-----3-----5-----7------|-3-----5-----7------|
A|-3--x8-5--x8-7--x16-|-3--x8-5--x8-2--x8-3--x8-3--x8-5--x8-7--x16-|-3--x8-5--x8-7--x16-|
D|-3-----5-----7------|-3-----5-----2-----3-----3-----5-----7------|-3-----5-----7------|

Guitar 2
e|----------------------------------|--------------------------------------|------------||
B|---13--13--13--13--15--15--15--15-|------13--12--13--12--13--12\10-10-10-|-13---------||
G|-14------14------16------16-------|-16-16--16--16--16--16--16------12-12-|-16b17--x16-||
D|-----15------15------17------17---|--------------------------------------|------------||
A|----------------------------------|--------------------------------------|------------||
D|----------------------------------|-----------------------------1./2./3.-|---------4.-||
                                                                             ^gradual bend
[Outro]

Guitar 1
e|----------------------------------------------------------2x-|
B|-------------------------------------------------------------|
G|-------------------------------------------------------------|
D|-3-3-3-3-3-3/5-5-5-5-5-5-5-5-5\2-2-2-2-2-2/3-3-3-3-3-3-3-3-3-|
A|-------------------------------------------------------------|
D|-------------------------------------------------------------|
   * * * * * * * * * * * * * * * * * * * * * * * * * * * * * *
Guitar 2
e||----------------------------------------3x-|--------------------------------------||-------------|
B||o------------------------------------------|----------------------------10-10-10-o||-------------|
G||-----12------12--12-------12----12-12-12---|-12------12--12-------12----12-12-12--||-------------|
D||-----10------10--10-------10----10-10-10---|-10------10--10-------10----10-10-10--||---(pause)---|
A||o------------------------------------------|-------------------------------------o||-------------|
D||-------------------------------------------|--------------------------------------||-------------|

Guitar 3 (piano & clean guitar)
e|-------------------------------------------|--------------------------0~------------|
B|-------------------------------------------|-13~---8~----12~----10-12-13~---8~--10~-|
G|-9~----5~----7~-----5--7--9~----5~--7~--5~-|-9~----5~----7~-----------------5~--7~--|
D|-------------------------------------------|--------------------10-12---------------|
A|-------------------------------------------|----------------------------------------|
D|-------------------------------------------|----------------------------------------|            
Submit corrections


        Satellite lessons Hard to play? Try these video lessons and learn fast Satellite lessons
        
↑ Back to top | Tablatures and chords for acoustic guitar and electric guitar, ukulele, drums are parodies/interpretations of the original songs. You may use it for private study, scholarship, research or language learning purposes only