» » »

Mayday Parade - Priceless Tabs

Artists:  A B C D E F G H I J K L M N O P Q R S T U V W X Y Z # 

Priceless Tabs

(ver. 1) Click to play this song!
Mayday Parade
 Rating:
4.3/5 (19 votes)

 Priceless lessons Tabs too difficult? Try these video lessons and learn fast
 
                [Intro]
Guitar 1 - Lead (Alex)
eb|---------------------7*----------------------------------------------------|
Bb|-0-0-0-0-7*--0-0-0-0--7*--0-0-0-0-7*--0-0-0-0------------------------------|
Gb|-4-4-4-4-----3-3-1-1------4-4-4-4-----8-8-6-6--6h8p6-----------------------|
Db|---------------------------------------------------------------------------|
Ab|---------------------------------------------------------------------------|
Eb|---------------------------------------------------------------------------|

Guitar 2 - Rhythm (Brooks)
eb|---------------------------------------------------------------------------|
Bb|---------------------------------------------------------------------------|
Gb|---------------------------------------------------------------------------|
Db|-2-2-2-2-2---2-2-2-2------6-6-6-6-6---4-4-4-4------------------------------|
Ab|-2-2-2-2-2---2-2-2-2------6-6-6-6-6---4-4-4-4------------------------------|
Eb|-0-0-0-0-0---0-0-0-0------4-4-4-4-4---2-2-2-2------------------------------|

Guitar 1 - Lead (Alex)
eb|---------------------7*----------------------------------------------------|
Bb|-0-0-0-0-7*--0-0-0-0--7*--0-0-0-0-7*--0-0-0-0-7*-12*-7*--------------------|
Gb|-4-4-4-4-----3-3-1-1------4-4-4-4-----8-8-6-6------------------------------|
Db|---------------------------------------------------------------------------|
Ab|---------------------------------------------------------------------------|
Eb|---------------------------------------------------------------------------|

Guitar 2 - Rhythm (Brooks)
eb|---------------------------------------------------------------------------|
Bb|---------------------------------------------------------------------------|
Gb|---------------------------------------------------------------------------|
Db|-2-2-2-2-2---2-2-2-2------6-6-6-6-6---4-4-4-4------------------------------|
Ab|-2-2-2-2-2---2-2-2-2------6-6-6-6-6---4-4-4-4------------------------------|
Eb|-0-0-0-0-0---0-0-0-0------4-4-4-4-4---2-2-2-2------------------------------|

[Verse 1] 
"You make me hide the way I want to feel in photographs..."

Guitar 1 - Lead (Alex)
eb|---------------------------------------------------------------------------|
Bb|---------------------------------------------------------------------------|
Gb|---------------------------------11-11-11-11-11-11-11-11-11-8~--9~--11~----|
Db|---------------------------------------------------------------------------|
Ab|---------------------------------------------------------------------------|
Eb|---------------------------------------------------------------------------|
                                   PM, slowly lifting off

Guitar 2 - Rhythm (Brooks)
eb|---------------------------------------------------------------------------|
Bb|---------------------------------------------------------------------------|
Gb|-9--------------13-------11-------9---------------13-------11-------11-11--|
Db|-9--------------13-------11-------9---------------13-------11-------11-11--|
Ab|-7--------------11-------9--------7---------------11-------9--------9--9---|
Eb|---------------------------------------------------------------------------|

[Pre-Chorus 1] 
"Break down, all on me..."

Guitar 1 - Lead (Alex)
eb|-14b15br14-----------------------------14b15br14---------------------------|
Bb|-----------12-14b16br14-12-----------------------12-14b16br14-12-----------|
Gb|----------------------------8~-9~-11~-----------------------------8~-9~-11~|
Db|---------------------------------------------------------------------------|
Ab|---------------------------------------------------------------------------|
Eb|---------------------------------------------------------------------------|

Guitar 2 - Rhythm (Brooks)
eb|---------------------------------------------------------------------------|
Bb|---------------------------------------------------------------------------|
Gb|---------------------------------------------------------------------------|
Db|-2--------------6-6-6-6-6---4-4-4-4----2-2-2-2-2-2-2--6-6-6-6-6---4-4-4-4--|
Ab|-2--------------6-6-6-6-6---4-4-4-4----2-2-2-2-2-2-2--6-6-6-6-6---4-4-4-4--|
Eb|-0--------------4-4-4-4-4---2-2-2-2----0-0-0-0-0-0-0--4-4-4-4-4---2-2-2-2--|

[Chorus] 
"You'll be the reason..."

Guitar 1 - Lead (Alex)
eb|---------------------------------------------------------------------------|
Bb|-----7*------7*------7-------7-------4-------4-------5---------------------|
Gb|---8---8---8---8---8---8---6---6---4---4---4---4---4-----4---3h4-----------|
Db|-9-------9-------8-------8-------6-------6-------2-----2---2---------------|  x 2
Ab|---------------------------------------------------------------------------|
Eb|---------------------------------------------------------------------------|

Guitar 2 - Rhythm (Brooks)
eb|---------------------------------------------------------------------------|
Bb|---------------------------------------------------------------------------|
Gb|-4-4-4-4-4-4-4-4-----------------------------------------------------------|
Db|-4-4-4-4-4-4-4-4-4-4-4-4-4-4-4-4-6-6-6-6-6-6-6-6-2-2-2-2-2-2-2-2-----------|  x 2
Ab|-2-2-2-2-2-2-2-2-4-4-4-4-4-4-4-4-6-6-6-6-6-6-6-6-2-2-2-2-2-2-2-2-----------|
Eb|-----------------2-2-2-2-2-2-2-2-4-4-4-4-4-4-4-4-0-0-0-0-0-0-0-0-----------|

[Repeat Intro]
Guitar 1 - Lead (Alex)
eb|---------------------7*----------------------------------------------------|
Bb|-0-0-0-0-7*--0-0-0-0--7*--0-0-0-0-7*--0-0-0-0------------------------------|
Gb|-4-4-4-4-----3-3-1-1------4-4-4-4-----8-8-6-6--6h8p6-----------------------|
Db|---------------------------------------------------------------------------|
Ab|---------------------------------------------------------------------------|
Eb|---------------------------------------------------------------------------|

Guitar 2 - Rhythm (Brooks)
eb|---------------------------------------------------------------------------|
Bb|---------------------------------------------------------------------------|
Gb|---------------------------------------------------------------------------|
Db|-2-2-2-2-2---2-2-2-2------6-6-6-6-6---4-4-4-4------------------------------|
Ab|-2-2-2-2-2---2-2-2-2------6-6-6-6-6---4-4-4-4------------------------------|
Eb|-0-0-0-0-0---0-0-0-0------4-4-4-4-4---2-2-2-2------------------------------|


Guitar 1 - Lead (Alex)
eb|---------------------7*----------------------------------------------------|
Bb|-0-0-0-0-7*--0-0-0-0--7*--0-0-0-0-7*--0-0-0-0-7*-12*-7*--------------------|
Gb|-4-4-4-4-----3-3-1-1------4-4-4-4-----8-8-6-6------------------------------|
Db|---------------------------------------------------------------------------|
Ab|---------------------------------------------------------------------------|
Eb|---------------------------------------------------------------------------|

Guitar 2 - Rhythm (Brooks)
eb|---------------------------------------------------------------------------|
Bb|---------------------------------------------------------------------------|
Gb|---------------------------------------------------------------------------|
Db|-2-2-2-2-2---2-2-2-2------6-6-6-6-6---4-4-4-4------------------------------|
Ab|-2-2-2-2-2---2-2-2-2------6-6-6-6-6---4-4-4-4------------------------------|
Eb|-0-0-0-0-0---0-0-0-0------4-4-4-4-4---2-2-2-2------------------------------|

[Verse 2]
"And now I'm starting every sentence with an apology..."

Guitar 1 - Lead (Alex)
eb|-------------------------------------14~b16~~~br14-------------------------|
Bb|---------------------------------------------------------------------------|
Gb|-------------------------------------------------------------8~-9~-11~-----|
Db|---------------------------------------------------------------------------|
Ab|---------------------------------------------------------------------------|
Eb|---------------------------------------------------------------------------|
 
Guitar 2 - Rhythm (Brooks)
eb|---------------------------------------------------------------------------|
Bb|---------------------------------------------------------------------------|
Gb|-9----------13---13--11--11-11/13\11--9-------------13-------11------------|
Db|-9----------13---13--11--11-11/13\11--9-------------13-------11------------|
Ab|-7----------11---11--9---9--9/-11\9---7-------------11-------9-------------|
Eb|---------------------------------------------------------------------------|

[Pre-Chorus 2] 
"Break down, all on me..."

Guitar 1 - Lead (Alex)
eb|-14b15br14-----------------------------14b15br14---------------------------|
Bb|-----------12-14b16br14-12-----------------------12-14b16br14-12-----------|
Gb|----------------------------8~-9~-11~-----------------------------8~-9~-11~|
Db|---------------------------------------------------------------------------|
Ab|---------------------------------------------------------------------------|
Eb|---------------------------------------------------------------------------|

Guitar 2 - Rhythm (Brooks)
eb|---------------------------------------------------------------------------|
Bb|---------------------------------------------------------------------------|
Gb|---------------------------------------------------------------------------|
Db|-2--------------6-6-6-6-6---4-4-4-4----2-2-2-2-2-2-2--6-6-6-6-6---4-4-4-4--|
Ab|-2--------------6-6-6-6-6---4-4-4-4----2-2-2-2-2-2-2--6-6-6-6-6---4-4-4-4--|
Eb|-0--------------4-4-4-4-4---2-2-2-2----0-0-0-0-0-0-0--4-4-4-4-4---2-2-2-2--|


"Would it kill you to be a little more precies and more polite when you speak..."
Guitar 1 - Lead (Alex)
eb|---------------------------------------------------------------------------|
Bb|---------------------------------------------------------------------------|
Gb|-11-11-11-11-11-11-11-11-9-9-9-9-8-8-8-8-----------------------------------|
Db|---------------------------------------------------------------------------|
Ab|---------------------------------------------------------------------------|
Eb|---------------------------------------------------------------------------|
    PM, slowly lifting off
Guitar 2 - Rhythm (Brooks)
eb|---------------------------------------------------------------------------|
Bb|---------------------------------------------------------------------------|
Gb|---------------------------------------------------------------------------|
Db|-2-------------------------------------------------------------------------|
Ab|-2-------------------------------------------------------------------------|
Eb|-0-----------------------4~~-----2~~---------------------------------------|

[Repeat Chorus]
"You'll be the reason..."

Guitar 1 - Lead (Alex)
eb|---------------------------------------------------------------------------|
Bb|-----7*------7*------7-------7-------4-------4-------5---------------------|
Gb|---8---8---8---8---8---8---6---6---4---4---4---4---4-----4---3h4-----------|
Db|-9-------9-------8-------8-------6-------6-------2-----2---2---------------|  x 2
Ab|---------------------------------------------------------------------------|
Eb|---------------------------------------------------------------------------|

Guitar 2 - Rhythm (Brooks)
eb|---------------------------------------------------------------------------|
Bb|---------------------------------------------------------------------------|
Gb|-4-4-4-4-4-4-4-4-----------------------------------------------------------|
Db|-4-4-4-4-4-4-4-4-4-4-4-4-4-4-4-4-6-6-6-6-6-6-6-6-2-2-2-2-2-2-2-2-----------|  x 2
Ab|-2-2-2-2-2-2-2-2-4-4-4-4-4-4-4-4-6-6-6-6-6-6-6-6-2-2-2-2-2-2-2-2-----------|
Eb|-----------------2-2-2-2-2-2-2-2-4-4-4-4-4-4-4-4-0-0-0-0-0-0-0-0-----------|

[Interlude] 
"...When we both need each other, these moments are priceless..."

Guitar 1 - Lead (Alex)
eb|---------------------------------------------------------------------------|
Bb|---------------------------------------------------------------------------|
Gb|-8/9-9-9/11-11/13-13-13---11/13-13-13/15-15-15/16-16-16---16-16\15---------|
Db|---------------------------------------------------------------------------|
Ab|-6/7-7-7/9--9-/11-11-11---9-/11-11-11/13-13-13/14-14-14---14-14\13---------|
Eb|---------------------------------------------------------------------------|

Guitar 2 - Rhythm (Brooks)
eb|---------------------------------------------------------------------------|
Bb|---------------------------------------------------------------------------|
Gb|---------------------------------------------------------------------------|
Db|------------6-6-6-6--------6-6-6-6-/8-8-8-/-9-9-9-9-------9--9\8-----------|
Ab|------------6-6-6-6--------6-6-6-6-/8-8-8-/-9-9-9-9-------9--9\8-----------|
Eb|------------4-4-4-4--------4-4-4-4-/6-6-6-/-7-7-7-7-------7--7\6-----------|


"other, these moments..."
Guitar 1 - Lead (Alex)
eb|---------------------------------------------------------------------------|
Bb|---------------------------------------------------------------------------|
Gb|-11/13-13-13--11/13-13-13\11-11-11/13-13-13--11/13-13-13/15-15-15/16-16-16-|
Db|---------------------------------------------------------------------------|
Ab|-9-/11-11-11--9-/11-11-11\9--9--9-/11-11-11--9-/11-11-11/13-13-13/14-14-14-|
Eb|---------------------------------------------------------------------------|

Guitar 2 - Rhythm (Brooks)
eb|---------------------------------------------------------------------------|
Bb|---------------------------------------------------------------------------|
Gb|---------------------------------------------------------------------------|
Db|-2-2-2-2------2-2-2-2h4-4-4-4--/6-6-6-6-------6-6-6-6-/8-8-8-/-9-9-9-9-----|
Ab|-2-2-2-2------2-2-2-2h4-4-4-4--/6-6-6-6-------6-6-6-6-/8-8-8-/-9-9-9-9-----|
Eb|-0-0-0-0------0-0-0-0h2-2-2-2--/4-4-4-4-------4-4-4-4-/6-6-6-/-7-7-7-7-----|


       "...confidence...    just for you"
Guitar 1 - Lead (Alex)
eb|---------------------------------------------------------------------------|
Bb|---------------------------------------------------------------------------|
Gb|-16-16\15--11/13-13-13---13-11-8---------------8-8---8-8---8-8-8-8-8-------|
Db|---------------------------------------------------------------------------|
Ab|-14-14\13--9-/11-11-11---11-9--6--6b7br6b7br6--6-6---6-6---6-6-6-6-6-------|
Eb|---------------------------------------------------------------------------|

Guitar 2 - Rhythm (Brooks)
eb|---------------------------------------------------------------------------|
Bb|---------------------------------------------------------------------------|
Gb|---------------------------------------------------------------------------|
Db|-9--9\8----2-------------2--2--9---9-9---------9-9---9-9---9-9-9-9-9-------|
Ab|-9--9\8----2-------------2--2--9---9-9---------9-9---9-9---9-9-9-9-9-------|
Eb|-7--7\6----0-------------0--0--7---7-7---------7-7---7-7---7-7-7-7-7-------|

In the studio version, there is some harmonics on a third guitar scattered throughout the interlude.
Guitar 3 - Harmonics(Mystery Man)
eb|------7*-------------------------------------------------------------------|
Bb|--7*-----7*--12*-----------------------------------------------------------|
Gb|---------------------------------------------------------------------------|
Db|---------------------------------------------------------------------------|
Ab|---------------------------------------------------------------------------|
Eb|---------------------------------------------------------------------------|

[Breakdown] 
"You'll be the reason..." (soft)

Guitar 1 - Lead (Alex)
eb|---------------------------------------------------------------------------|
Bb|---------------------------------------------------------------------------|
Gb|---------------------------------------------------------------------------|
Db|---------------------------------------------------------------------------|
Ab|---------------------------------------------------------------------------|
Eb|---------------------------------------------------------------------------|

Guitar 2 - Rhythm (Brooks)
eb|---------------------------------------------------------------------------|
Bb|-----7-------7-------7-------7-------4-------4-------5---------------------|
Gb|---8---8---8---8---8---8---6---6---4---4---4---4---4-----4---3h4-----------|
Db|-9-------9-------8-------8-------6-------6-------2-----2---2---------------|
Ab|---------------------------------------------------------------------------|
Eb|---------------------------------------------------------------------------|

Guitar 1 - Lead (Alex)
eb|-7---7---7---7---6---6-----6---6---7---7---7---7-11---11------X\\----------|
Bb|---7---7---7---7---7---7-8---8---9---9---9---9-----12----12---X\\----------|
Gb|--------------------------------------------------------------X\\----------|
Db|--------------------------------------------------------------X\\----------|
Ab|--------------------------------------------------------------X\\----------|
Eb|--------------------------------------------------------------X\\----------|
                                                               Pick scr*pe w/ Distortion
Guitar 2 - Rhythm (Brooks)
eb|---------------------------------------------------------------------------|
Bb|-----7-------7-------7-------7-------4-------4-------5---------------------|
Gb|---8---8---8---8---8---8---6---6---4---4---4---4---4-----4---3h4- ---------|
Db|-9-------9-------8-------8-------6-------6-------2-----2---2---------------|
Ab|---------------------------------------------------------------------------|
Eb|---------------------------------------------------------------------------|

[Outro Chorus]
Guitar 1 - Lead (Alex)
eb|-7---7---7---7---6---6-----6---6---7---7---7---7-9---9---7-6---6-----------|
Bb|---7---7---7---7---7---7-8---8---9---9---9---9-----9---9-----9-------------|
Gb|---------------------------------------------------------------------------|
Db|---------------------------------------------------------------------------|
Ab|---------------------------------------------------------------------------|
Eb|---------------------------------------------------------------------------|

Guitar 2 - Rhythm (Brooks)
eb|---------------------------------------------------------------------------|
Bb|---------------------------------------------------------------------------|
Gb|-4-4-4-4-4-4-4-4-----------------------------------------------------------|
Db|-4-4-4-4-4-4-4-4-4-4-4-4-4-4-4-4-6-6-6-6-6-6-6-6-2-2-2-2-2-2-2-2-----------|
Ab|-2-2-2-2-2-2-2-2-4-4-4-4-4-4-4-4-6-6-6-6-6-6-6-6-2-2-2-2-2-2-2-2-----------|
Eb|-----------------2-2-2-2-2-2-2-2-4-4-4-4-4-4-4-4-0-0-0-0-0-0-0-0-----------|

Guitar 1 - Lead (Alex)
eb|---------------------------------------------------------------------------|
Bb|---------------------------------------------------------------------------|
Gb|-----------------11--11--11--11--13--13--13--13--9---9---9---9-------------|
Db|-9---9---9---9---11--11--11--11--13--13--13--13--9---9---9---9-------------|
Ab|-9---9---9---9---9---9---9---9---11--11--11--11--7---7---7---7-------------|
Eb|-7---7---7---7-------------------------------------------------------------|

Guitar 2 - Rhythm (Brooks)
eb|---------------------------------------------------------------------------|
Bb|---------------------------------------------------------------------------|
Gb|-4-4-4-4-4-4-4-4-----------------------------------------------------------|
Db|-4-4-4-4-4-4-4-4-4-4-4-4-4-4-4-4-6-6-6-6-6-6-6-6-2-2-2-2-2-2-2-2-----------|
Ab|-2-2-2-2-2-2-2-2-4-4-4-4-4-4-4-4-6-6-6-6-6-6-6-6-2-2-2-2-2-2-2-2-----------|
Eb|-----------------2-2-2-2-2-2-2-2-4-4-4-4-4-4-4-4-0-0-0-0-0-0-0-0-----------|

[Outro]
Guitar 1 - Lead (Alex)
eb|---------------------------------------------------------------------------|
Bb|---------------------------------------------------------------------------|
Ab|-8/9-9-9/11-11/13-13-13----------------------------------------------------|
Db|---------------------------------------------------------------------------|
Ab|-6/7-7-7/9--9-/11-11-11----------------------------------------------------|
Eb|---------------------------------------------------------------------------|

Guitar 2 - Rhythm (Brooks)
eb|---------------------------------------------------------------------------|
Bb|---------------------------------------------------------------------------|
Gb|---------------------------------------------------------------------------|
Db|-2-2-2-2h4-4-4/6-6-6-------------------------------------------------------|
Ab|-2-2-2-2h4-4-4/6-6-6-------------------------------------------------------|
Eb|-0-0-0-0h2-2-2/4-4-4-------------------------------------------------------|            
Submit corrections


        Priceless lessons Hard to play? Try these video lessons and learn fast Priceless lessons
        
↑ Back to top | Tablatures and chords for acoustic guitar and electric guitar, ukulele, drums are parodies/interpretations of the original songs. You may use it for private study, scholarship, research or language learning purposes only