» » »

Mayday Parade - One Of Us Chords

Artists:  A B C D E F G H I J K L M N O P Q R S T U V W X Y Z # 

One Of Us Chords

(ver. 1) Click to play this song!
Mayday Parade
 Rating:
2.8/5 (24 votes)

 One Of Us  lessons Tabs too difficult? Try these video lessons and learn fast
 
                [Intro]
                            C
 I just gotta tell you one last thing
           Em
 How the angels make their way home
           Am
 I saw it carved into a headstone
       F
 That came to me so suddenly
         C
 Right there
         Em                    Am
 And this temporary body we call home
                                 F
 You get the most if you don't look back
                                 Am
 You get the most if you save it up


[Bridge 1]
                          G
 You want fire, I've got fire, girl
                        F                                 
 And things that seem impossible until you get to know me


[Chorus]
C              G            Am                 C                F
 You're one of us, here's exactly what you'll need to make it through
           C               F
 Good times and hard times
           G              C
 We're here to fight for you
          G
 March along
          Am               Em                  F
 Don't forget to tell the ones you love they matter
                     C
 When you break the bend
            F
 Fall off again
                   G                       C
 You'll find your love where it's always been


[Solo]

e|--15b17------15b17---------------------------------------------------------|
B|--------13~--------13~--12b13r12~--------15b17-pb17~------15b17-pb17~------|
G|-------------------------------------\12--------------\12------------------|
D|---------------------------------------------------------------------------|
A|---------------------------------------------------------------------------|
E|---------------------------------------------------------------------------|

e|--13-12--------------------------------------------------------------------|
B|--------13-12--------------------------------------------------------------|
G|--------------14-12-14-12--------------------------------------------------|
D|--------------------------15-14-15-14-15-14-10---12--13--14--15~-----------|
A|---------------------------------------------------------------------------|
E|---------------------------------------------------------------------------|

e|---------------------------------------------------------------------------|
B|--15b17--15b17---------17-16-15-13----13-----------------------------------|
G|-------12-----------12-----------------------------------------------------|
D|----------------------------------14---------------------------------------|
A|---------------------------------------------------------------------------|
E|---------------------------------------------------------------------------|


[Verse]
               C
 You've gotta fight the beast inside
                     Em
 And all the while enjoy the ride
                       Am
 You've gotta keep an open mind
                       F
 And willingness to change
                        Am
 Well God knows I've changed
                    G
 I talk like I'm wounded now
                Am             G
 I walk like I don't know how
          F#
 Maybe I could re-teach myself
  F
 One foot in front of the other one


[Chorus]
C              G            Am                 C                F
 You're one of us, here's exactly what you'll need to make it through
           C               F
 Good times and hard times
           G              C
 We're here to fight for you
          G
 March along
          Am               Em                  F
 Don't forget to tell the ones you love they matter
                     C
 When you break the bend
            F
 Fall off again
                   G                       C
 You'll find your love where it's always been


*Acoustic Guitar Solo*


[Bridge 2]
C                    G          Am
 I will carry my heart back home now
       F                C         G
 This place doesn't hold any secrets anymore
            F             
 Feels like I didn't fight
C            G                            F   C  G  F
 Didn't give it all I could and now it's gone


 C                G            Am
 I will carry my heart back home now
       F                C         G
 This place doesn't hold any secrets anymore
            F             
 Feels like I didn't fight
C            G                            F   C  G  Am  F
 Didn't give it all I could and now it's gone


[Chorus]
        C            G                Am                F
 One of us cares exactly what you'll need to make it through
        C              G
 Good times and hard times
        Am               F
 We're here to fight for you
        C
 March along
          G                Am                  F
 Don't forget to tell the ones you love they matter
                     C
 When you break the bend
            G
 Fall off again
                   Am                   F
 You'll find your love where it's always been


[Ending Riff]x4

e|--19b20r19-----19b20r19----------------------------------------------------|
B|-----------17-----------17---17-18-17---------17-18-17----17---------------|
G|--------------------------------------19---19----------19------------------|
D|---------------------------------------------------------------------------|
A|---------------------------------------------------------------------------|
E|---------------------------------------------------------------------------|

            
Submit corrections


        One Of Us  lessons Hard to play? Try these video lessons and learn fast One Of Us  lessons
        
↑ Back to top | Tablatures and chords for acoustic guitar and electric guitar, ukulele, drums are parodies/interpretations of the original songs. You may use it for private study, scholarship, research or language learning purposes only