» » »

Mayday Parade - Never Sure Tabs

Artists:  A B C D E F G H I J K L M N O P Q R S T U V W X Y Z # 

Never Sure Tabs

(ver. 1) Click to play this song!
Mayday Parade
 Rating:
4.4/5 (11 votes)

 Never Sure lessons Tabs too difficult? Try these video lessons and learn fast
 
                [Intro]

Guitar 1
e|-------------------------------------------------|
B|-------------------------------------------------|
G|-4-----------------------------------------------|
D|-4--x16-2------6-----4-----2---------------------|
A|-2------2--x16-6--x8-4--x8-2--x16----------------|
D|--------2------6-----4-----2---------------------|

Guitar 2
e|-------------------|----------1.-|---------------|----------3.-|--------------------||
B|-------------------|-------------|-------------7-|-------------|--------------7-7~--||
G|----4~-3~----------|-------------|-4~-----6~/8---|-------------|-4~------6~/8---8~--||
D|----------4/6\4-2~-|-1~-2~-1-----|----2/4--------|-1~-2-4~-2---|----2/4~------------||
A|-2~----------------|---------4-1-|---------------|-----------4-|--------------------||
D|-------------------|-------------|------------2.-|-------------|-----------------4.-||

[Verse] 

Guitar 1
e|----------------------------------|
B|---------------5------------------|
G|-4-------------6------4-----6-----|
D|-4--x16-6------6--x16-2-----4-----|
A|-2------6--x16-4------2--x8-4--x8-|
D|--------6-------------2-----4-----|

Guitar 2
e|-----------------------------------------------------------------------|
B|-----4-----4-----4-----4-----2-4-----4-----4-----4-----4-----4-----2-4-|
G|-444---444---444---444---444-----111---111---111---111---111---111-----|
D|-----------------------------------------------------------------------|
A|-----------------------------------------------------------------------|
D|-----------------------------------------------------------------------|
   ***   ***   ***   ***   ***     ***   ***   ***   ***   ***   ***   
e|---------------------------------------------------------------------------------------|
B|-----5-----5-----5-----5-----5-----4-5-----7-----7-----7/9~-7~---7-5-4-----7-5-4-------|
G|-666---666---666---666---666---666-----444---444---444---------8-------6-4-------6-4~--|
D|---------------------------------------------------------------------------------------|
A|---------------------------------------------------------------------------------------|
D|---------------------------------------------------------------------------------------|
   ***   ***   ***   ***   ***   ***     ***   ***   ***
[Prechorus]

Guitar 1
e|----------------------------------------------------|
B|----------------------------------------------------|
G|-4-------------6------8-8-9-------------------------|
D|-4--x16-6------6--x14-8-8-9--x16-------------xxxxxx-|
A|-2------6--x16-4------6-6-7------4-4-4-4-4-4-xxxxxx-|
D|--------6------------------------4-4-4-4-4-4-xxxxxx-|
                                   * * * * * *
Guitar 2
e|---------6x-|------------------------------------|
B|------------|------------------------------------|
G|------------|------------------------------------|
D|-4~--2~--1~-|------------------------------------|
A|------------|-4--(pause)-------------------------|
D|------------|------------------------------------|

[Chorus]

Guitar 1
e|-----------------------------------------------------------|
B|-----------------------------------------------------------|
G|-------------------------------------4---------------------|
D|-9-----8-----6-----4-----2-----4-----4--x8-6-6-6-6-4-4-4-4-|
A|-9--x8-9--x8-6--x8-4--x8-2--x8-4--x8-2-----6-6-6-6-4-4-4-4-|
D|-9-----8-----6-----4-----2-----4-----------6-6-6-6-4-4-4-4-|

Guitar 2
e|-----------------------------------------------------------------------------------------|
B|-----------------------------------------------------------------------------------------|
G|-11----6-6-9-9-8-8-6-6-4-----6-6-9-9-8-8-6-6-4-----6\4-6\4-6\4-6\4-4-----8-8-8-8-6-6-6-6-|
D|----x8--------------------x8--------------------x8--------------------x8-----------------|
A|-9-----4-4-7-7-6-6-4-4-2-----4-4-7-7-6-6-4-4-2-----4\2-4\2-4\2-4\2-2-----6-6-6-6-4-4-4-4-|
D|-----------------------------------------------------------------------------------------|

[Re-Intro/Verse 2]

Guitar 1
e|-------------------------------------------------------|----------------------------------|
B|-------------------------------------------------------|---------------5------------------|
G|-4-----------------------------------------------------|-4-------------6------4-----6-----|
D|-4--x16-2------6-----4-----2---------------------------|-4--x16-6------6--x16-2-----4-----|
A|-2------2--x16-6--x8-4--x8-2--x16----------------------|-2------6--x16-4------2--x8-4--x8-|
D|--------2------6-----4-----2---------------------------|--------6-------------2-----4-----|

Guitar 2
e|-------------------|----------1.-|--------------------||---------------12~----7~----6~----|
B|-------------------|-------------|----------------7~--||-(7~)-----------------------------|
G|----4~-3~---1------|-------------|----------6/8\6-8~--||-(8~)----13~---9~-----4~~---3~----|
D|----------4---4-2~-|-1~-2~-1-----|----2~/4~-----------||----------------------------------|
A|-2~----------------|---------4-1-|-4~-----------------||---------11~----------------------|
D|-------------------|-------------|-------------2.-----||----------------------------------|

[Prechorus]

Guitar 1
e|------------------------------------------------------------|
B|------------------------------------------------------------|
G|-4-------------6------8-8-9---------------------------------|
D|-4--x16-6------6--x14-8-8-9--x16-----------\\\--------------|
A|-2------6--x16-4------6-6-7------4-4-4-4-4-\\\-(pickscr*pe)-|
D|--------6------------------------4-4-4-4-4-\\\--------------|
                                   * * * * * *
Guitar 2
e|---------8x-|------------------------------------|
B|------------|------------------------------------|
G|------------|------------------------------------|
D|-4~--2~--1~-|------------------------------------|
A|------------|-4--(pause)-------------------------|
D|------------|------------------------------------|

[Chorus 2]

Guitar 1
e|-----------------------------------------------------------|
B|-----------------------------------------------------------|
G|-------------------------------------4---------------------|
D|-9-----8-----6-----4-----2-----4-----4--x8-6-6-6-6-4-4-4-4-|
A|-9--x8-9--x8-6--x8-4--x8-2--x8-4--x8-2-----6-6-6-6-4-4-4-4-|
D|-9-----8-----6-----4-----2-----4-----------6-6-6-6-4-4-4-4-|

Guitar 2
e|-----------------------------------------------------------------------------------------|
B|-----------------------------------------------------------------------------------------|
G|-11----6-6-9-9-8-8-6-6-4-----6-6-9-9-8-8-6-6-4-----6\4-6\4-6\4-6\4-4-----8-8-8-8-6-6-6-6-|
D|----x8--------------------x8--------------------x8--------------------x8-----------------|
A|-9-----4-4-7-7-6-6-4-4-2-----4-4-7-7-6-6-4-4-2-----4\2-4\2-4\2-4\2-2-----6-6-6-6-4-4-4-4-|
D|-----------------------------------------------------------------------------------------|

[Bridge Pt. 1 (2:07)]

Guitar 1
e|-----------------------------------------------------------|
B|-----------------------------------------------------------|
G|-------------------------------------4---------------------|
D|-9-----8-----6-----4-----2-----4-----4--x8-6-6-6-6-4-4-4-4-|
A|-9--x8-9--x8-6--x8-4--x8-2--x8-4--x8-2-----6-6-6-6-4-4-4-4-|
D|-9-----8-----6-----4-----2-----4-----------6-6-6-6-4-4-4-4-|

e|-----------------------------------------|--------------------------1.-|----------------2.-||
B|-----------------------------------------|-----------------------------|-------------------||
G|-----------------------------------------|-----------------------------|-------------------||
D|-----------------------------------------|-----------------------------|-------------------||
A|-2-----4-----1-----2-2-2-2-(pause)-2-----|-4-----6-----6-6-6-6-4-4-4-4-|-4-4-4-4-4-(pause)-||
D|-2--x8-4--x8-1--x8-2-2-2-2---------2--x8-|-4--x8-5--x8-6-6-6-6-4-4-4-4-|-4-4-4-4-4---------||
   *     *     *     * * * *                 *     *     * * * * * * * *   * * * * * 
Guitar 2
e|-7~---6~--7~--------7~----6~--7~------11p9~-|-(7~)---------------------------------------------------|
B|---------------9~---------------------------|---------------------0-------------------------4--------|
G|--------------------------------------------|-4--x8-6-6-6-3-3-3-3---4-4-4-4-4-4-4-4-6-6-6-6-6-/8p6-4-|
D|--------------------------------------------|--------------------------------------------------------|
A|--------------------------------------------|--------------------------------------------------------|
D|-----------------------------------------2x-|--------------------------------------------------------|
                                                *     * * * * * * *   * *     * * * *
e|--------------------------------------------------------12--12--12--11---9---9---9---9--11--11--11--9----| 
B|-------------------------------------0--0--0--0-0-0-0-0---12--12--12--12--12--12--12--12--12--12--12--12-|
G|-4--x8-6-6-6-3-3-3-3-6-6-6-6-6-6-8-8-11-11-11-9-9-9-8-8--------------------------------------------------|
D|---------------------------------------------------------------------------------------------------------|
A|---------------------------------------------------------------------------------------------------------|
D|---------------------------------------------------------------------------------------------------------|

e|-7---7---7-/11-9-7-12--12--12--14--9----9----9\7-7-7-|
B|---9---9---------0---12--12--12--12--12---12---------|
G|-----------/8--6-------------------------------------|
D|-----------------------------------------------------|
A|-----------------------------------------------------|
D|-----------------------------------------------------|

[Bridge Pt. 2]

Guitar 1
e|-------------------------------------------------|
B|-------------------------------------------------|
G|-4-----------------------------------------------|
D|-4--x16-2------6-----4-----2---------------------|
A|-2------2--x16-6--x8-4--x8-2--x16----------------|
D|--------2------6-----4-----2---------------------|

Guitar 2
e|-------------------|----------1.-|---------------|----------3.-|--------------------||
B|-------------------|-------------|-------------7-|-------------|--------------7-7~--||
G|----4~-3~----------|-------------|-4~-----6~/8---|-------------|-4~------6~/8---8~--||
D|----------4/6\4-2~-|-1~-2~-1-----|----2/4--------|-1~-2-4~-2---|----2/4~------------||
A|-2~----------------|---------4-1-|---------------|-----------4-|--------------------||
D|-------------------|-------------|------------2.-|-------------|-----------------4.-||

[Chorus/Outro]

Guitar 1
e|-------------------------------------------|-----------------|--------------------------------------|
B|-------------------------------------------|-----------------|--------------------------------------|
G|-------------------------------------4-----|-----------------|-------------------4------------------|
D|-9-----8-----6-----4-----2-----4-----4--x8-|-6-6-6-6-4-4-4-4-|-6-----2-----4-----4--x8-6~---4~---2~-|
A|-9--x8-9--x8-6--x8-4--x8-2--x8-4--x8-2-----|-6-6-6-6-4-4-4-4-|-6--x8-2--x8-4--x8-2-----6~---4~---2~-|
D|-9-----8-----6-----4-----2-----4-----------|-6-6-6-6-4-4-4-4-|-6-----2-----4-----------6~---4~---2~-|

Guitar 2
e|-----------------------------------------------------------------------------------------|
B|-----------------------------------------------------------------------------------------|
G|-11----6-6-9-9-8-8-6-6-4-----6-6-9-9-8-8-6-6-4-----6\4-6\4-6\4-6\4-4-----8-8-8-8-6-6-6-6-|
D|----x8--------------------x8--------------------x8--------------------x8-----------------|
A|-9-----4-4-7-7-6-6-4-4-2-----4-4-7-7-6-6-4-4-2-----4\2-4\2-4\2-4\2-2-----6-6-6-6-4-4-4-4-|
D|-----------------------------------------------------------------------------------------|

e|-------------------------------------------------------------------12----------|-12----------|
B|-12-12-12-12-----12-12-12-12-12--------------12-12-12-12-----12~------14~-12~--|---------12~-|
G|------------13-13--------------13-13-13-13-13-----------13-13------------------|-----13~-----|
D|-------------------------------------------------------------------------------|-------------|
A|-------------------------------------------------------------------------------|-------------|
D|-------------------------------------------------------------------------------|----------2x-|

e|------------12----------|-12----------|--------------------------------------||
B|------12~------14~-12~--|--------12~--|------12~----------------4~~----------||
G|-15~--------------------|----13~------|-15~-------------6~----4~~~~~---------||
D|------------------------|-------------|--------------------------------------||
A|------------------------|-------------|-----------------4~----2~~~~~---------||
D|------------------------|----------2x-|--------------------------------------||            
Submit corrections


        Never Sure lessons Hard to play? Try these video lessons and learn fast Never Sure lessons
        
↑ Back to top | Tablatures and chords for acoustic guitar and electric guitar, ukulele, drums are parodies/interpretations of the original songs. You may use it for private study, scholarship, research or language learning purposes only