» » »

Mayday Parade - Just Out Of Reach Tabs

Artists:  A B C D E F G H I J K L M N O P Q R S T U V W X Y Z # 

Just Out Of Reach Tabs

(ver. 1) Click to play this song!
Mayday Parade
 Rating:
4.3/5 (15 votes)

 Just Out Of Reach  lessons Tabs too difficult? Try these video lessons and learn fast
 
                [Verse 1]

e|---------------------------------------------------------------------------------|
B|---------------------------------------------------------------------------------|
G|---------------------------------------------------------------------------------|
D|---------------------------------------------------------------------------------|
A|---5-5h7s/9\7-5-0---5---5---5----------------------------------------------------|
E|------------------7---7---6---6--------------------------------------------------|


[Chorus]

(is just chords for the most part)

A - G - F#m - Bm | A - G - F#m


[Verse 3/Bridge/Outro] 

e|---------------------------------------------------------------------------|
B|---------------------------------------------------------------------------|
G|---------------------------------------------------------------------------|
D|---------------------------------------------------------------------------|
A|------9-7----------7-5---------5---5---7---4-4-----------------------------|
E|-7-10-----10-9-5-9-----9-5-3-9---7---5---5---------------------------------|            
Submit corrections


        Just Out Of Reach  lessons Hard to play? Try these video lessons and learn fast Just Out Of Reach  lessons
        
↑ Back to top | Tablatures and chords for acoustic guitar and electric guitar, ukulele, drums are parodies/interpretations of the original songs. You may use it for private study, scholarship, research or language learning purposes only