» » »

Mayday Parade - Jersey Bass

Artists:  A B C D E F G H I J K L M N O P Q R S T U V W X Y Z # 

Jersey Bass

(ver. 1) Click to play this song!
Mayday Parade
 Rating:
4/5 (4 votes)

 Jersey lessons Tabs too difficult? Try these video lessons and learn fast
 
                Tuning: Standard
Time signature: 4/4

Intro (no bass)

Interlude
G|-------------------------------------------------------------------------------------------------|
D|-------------------------------------------------------------------------------------------------|
A|-------------------------------------------------------------------------------------------------|
E|-2-2-2-2-2-2-2-2-2-2-2-2-2-2-2-2-6-6-6-6-6-6-6-6-6-6-6-6-6-6-6-6-4-4-4-4-4-4-4-4-4-4-4-4-4-4-4-4-|

G|---------------------------------|
D|---------------------------------|
A|---------------------------------|
E|-4-4-4-4-4-4-4-4-4-4-4-4-4-4-4-4-|

Verse 
G|-----------------------------------------------------------|
D|-----------------------------------------------------------|
A|-----------------------------------------------------------|
E|-2--2--------2--2--------2--/4--4--------/5--5---------4--/|

G|---------------------------------------------------------|
D|---------------------------------------------------------|
A|------------------------------------------------------4--|
E|-6--6--------6--6--------4--/6--6---------4--4----2-4----|

G|----------------------------------------------------------------------------------------------------|
D|----------------------------------------------------------------------------------------------------|
A|----------------------------------------------------------------------------------------------------|
E|-2--2--------2-2--2-2--------2-2--4--4--------4-4--4-4--------4-4--6--6--------6-6--6-6--------6-6--|

G|---------------------------------|
D|---------------------------------|
A|---------------------------------|
E|-6-6-6-6-6-6-6-6-2-2-2-2-2-2-2-2-|

Chorus x 2
G|-----------------------------------------------------------------|
D|-----------------------------------------------------------------|
A|-----------------------------------------------------------------|
E|-6-6-6-6-6-6-6-6-6-6-6-6-6-6-6-6-2-2-2-2-2-2-2-2-2-2-2-2-2-2-2-2-|

G|-----------------------------------------------------------------|
D|-----------------------------------------------------------------|
A|-4-4-4-4-4-4-4-4-4-4-4-4-4-4-4-4---------------------------------|
E|---------------------------------4-4-4-4-4-4-4-4-5-5-5-5-5-5-5-5-|

Interlude

Verse 

Chorus

Bridge
G|-------------------------------------------------------------------------------------------------|
D|-------------------------------------------------------------------------------------------------|
A|-------------------------------------------------------------------------------------------------|
E|-2--2--2~----------------4--4--4~----------------6--6--6~----------------6--6--6~----------------|

G|-------------------------------------------------------------------------------------------------|
D|-------------------------------------------------------------------------------------------------|
A|-------------------------------------------------------------------------------------------------|
E|-2--2--2--2--2--2--2--2--4--4--4~----------------6--6--6--6--6--6--6--6--6--6--6~----------------|

G|--------------------|
D|--------------------|
A|--------------------|
E|-6~-----------------|

Final Chorus (key change) x 2
G|-----------------------------------------------------------------|
D|-----------------------------------------------------------------|
A|-----------------------------------------------------------------|
E|-8-8-8-8-8-8-8-8-8-8-8-8-8-8-8-8-4-4-4-4-4-4-4-4-4-4-4-4-4-4-4-4-|

G|-----------------------------------------------------------------|
D|-----------------------------------------------------------------|
A|-6-6-6-6-6-6-6-6-6-6-6-6-6-6-6-6---------------------------------|
E|---------------------------------6-6-6-6-6-6-6-6-7-7-7-7-7-7-7-7-|

Outro
G|------------------------------------------------------------|
D|------------------------------------------------------------|
A|------------------------------------------------------------|
E|-8-8-8-8-8-8-6-6-8-8-8-8-8-8-6-6-8-8-8-8-8-8-6-6-8~---------|
            
Submit corrections


        Jersey lessons Hard to play? Try these video lessons and learn fast Jersey lessons
        
↑ Back to top | Tablatures and chords for acoustic guitar and electric guitar, ukulele, drums are parodies/interpretations of the original songs. You may use it for private study, scholarship, research or language learning purposes only