» » »

Mayday Parade - Is Nowhere Tabs

Artists:  A B C D E F G H I J K L M N O P Q R S T U V W X Y Z # 

Is Nowhere Tabs

(ver. 1) Click to play this song!
Mayday Parade
 Rating:
4.3/5 (6 votes)

 Is Nowhere lessons Tabs too difficult? Try these video lessons and learn fast
 
                [Intro]

Guitar 1
e|-------------------------------------------------------------------------------------------------------|
B|--------------------------------------------------------------------------------------------------9-11-|
G|-------------------------------------------------------------------------------------------8-10-11-----|
D|-1~-3~-4~--3-4-3-1~-3~-4~--3~---------(silence)-------------------------------------8-9-11-------------|
A|-------------------------------------------------------------------------------------------------------|
D|-------------------------------------------------------------------------------------------------------|

Guitar 2
e|----------------------------------------------------------------------------------------------|
B|----------------------------------------------------------------------------------------------|
G|-------------------------4-----6-----3-----8-8-8-8-6-6-6-6-4-----6-----3-----8-8-8-8-xxxxxxxx-|
D|-1~-1~-1~---1~-1~-1~-----4--x8-6--x8-4--x8-8-8-8-8-6-6-6-6-4--x8-6--x8-4--x8-8-8-8-8-xxxxxxxx-|
A|-1~-1~-1~---1~-1~-1~-----2-----4-----1-----6-6-6-6-4-4-4-4-2-----4-----1-----6-6-6-6-xxxxxxxx-|
D|-1~-1~-1~---1~-1~-1~--------------------------------------------------------------------------|

[Prechorus]

Guitar 1
e|---------------------------------------------------------|
B|-12~---------11~-----------------------------------------|
G|-------10~---------11~---10~---8-----10-10-10-10-7-7-7-7-|
D|----------------------------------x8---------------------|
A|-------------------9~----8~----6-----8--8--8--8--5-5-5-5-|
D|---------------------------------------------------------|

Guitar 2
e|---------------------------------------------------------|
B|---------------------------------------------------------|
G|-4-----6-----3-----8-8-8-8-6-6-6-6-4-----6-6-6-6-7-7-7-7-|
D|-4--x8-6--x8-4--x8-8-8-8-8-6-6-6-6-4--x8-6-6-6-6-8-8-8-8-|
A|-2-----4-----1-----6-6-6-6-4-4-4-4-2-----4-4-4-4-5-5-5-5-|
D|---------------------------------------------------------|

[Chorus]

Guitar 1
e|-------------------------------4x-|------------------------------|
B|----------------------------------|------------------------------|
G|----------------------------------|------------------------------|
D|-1~-3~-4~--4-4-4----4-4-4-3-3-3-3-|-1~-3~-4~--3-4-3-1~-3~-4~--3~-|
A|----------------------------------|------------------------------|
D|----------------------------------|------------------------------|

Guitar 2
e|------------------------------------------2x-|---------------------|
B|---------------------------------------------|---------------------|
G|---------3-3-3-6-6-6-6-4---------------------|---------------------|
D|-1-------4-4-4-6-6-6-6-4--x8---6-6-6-5-5-5-5-|-1~-1~-1~---1~-1~-1~-|
A|-1--x8---1-1-1-4-4-4-4-2-------6-6-6-6-6-6-6-|-1~-1~-1~---1~-1~-1~-|
D|-1-----------------------------6-6-6-5-5-5-5-|-1~-1~-1~---1~-1~-1~-|

[Verse 2]

Guitar 1
e|----------------------------------7~-----------------------------------------------------------------------|
B|-------------------------8~-9~-11----11~-9-----------------------------------------------------------------|
G|------------(pause)------------------------8-----10----8-----15-15-15-15-13-13-13-13-8-----6-6-6-6-7-7-7-7-|
D|----------------------------------------------x8----x8----x8----------------------------x8-6-6-6-6-8-8-8-8-|
A|-------------------------------------------6-----8-----6-----13-13-13-13-11-11-11-11-6-----4-4-4-4-5-5-5-5-|
D|-----------------------------------------------------------------------------------------------------------|

Guitar 2
e|-----------------------------------------------------------------------------------------------------------|
B|-----------------------------------------9~----------------------------------------------------------------|
G|-4~--/6~--\3~----8~--6~---------8~-10-11----11~-10-4-----6-----3-----8-8-8-8-6-6-6-6-4-----6-6-6-6-7-7-7-7-|
D|-4~--/6~--\4~----8~--6~-(pause)--------------------4--x8-6--x8-4--x8-8-8-8-8-6-6-6-6-4--x8-6-6-6-6-8-8-8-8-|
A|-2~--/4~--\1~----6~--4~----------------------------2-----4-----1-----6-6-6-6-4-4-4-4-2-----4-4-4-4-5-5-5-5-|
D|-----------------------------------------------------------------------------------------------------------|

[Chorus 2]

Guitar 1
e|-------------------------------4x-|-18-----18-----18---------16-----16--19-----19-----19--21------|
B|----------------------------------|---19-18--19-18--19-----18--18-16--19--19-16--19-16--19--19-18-|
G|----------------------------------|-------------------20\18---------------------------------------|
D|-1~-3~-4~--4-4-4----4-4-4-3-3-3-3-|---------------------------------------------------------------|
A|----------------------------------|---------------------------------------------------------------|
D|----------------------------------|---------------------------------------------------------------|

e|------------------------18-----------16------------16--19-----19-----19--21---------------------|
B|-19-19-18-19-19-18-16-18--19-18-16-18--19-18-16--18--19--19-16--19-16--19--19-18-19-19-18-19-19-|
G|-----------------------------------------------18-----------------------------------------------|
D|------------------------------------------------------------------------------------------------|
A|------------------------------------------------------------------------------------------------|
D|------------------------------------------------------------------------------------------------|

Guitar 2
e|------------------------------------------2x-|-----------------------------|--------------1.-|----------2.-||
B|---------------------------------------------|-----------------------------|-----------------|-------------||
G|---------3-3-3-6-6-6-6-4---------------------|-------3-3-3-3-6-6-6-6-4-----|-----------------|-------------||
D|-1-------4-4-4-6-6-6-6-4--x8---6-6-6-5-5-5-5-|-1-----4-4-4-4-6-6-6-6-4--x8-|-6-6-6-6---6-6-6-|-6~-6~-6~-6~-||
A|-1--x8---1-1-1-4-4-4-4-2-------6-6-6-6-6-6-6-|-1--x8-1-1-1-1-4-4-4-4-2-----|-6-6-6-6---6-6-6-|-6~-6~-6~-6~-||
D|-1-----------------------------6-6-6-5-5-5-5-|-1---------------------------|-6-6-6-6---6-6-6-|-6~-6~-6~-6~-||

[Bridge]

Guitar 1
e|-----------|--------------------------------------------------------2x-|-----------------------------------|
B|-18b19~----|-----------------------------------------------------------|-----------------------------------|
G|-----------|-----------------------------------------------------------|-----------------------------------|
D|-----------|---------------6-6-6-6-6-6---4-4-4-4-4-4-------------------|----(pause)----------4-4-4---3-3-3-|
A|-----------|-1-1-1-1-1-1---4-4-4-4-4-4---2-2-2-2-2-2---8-8-8-8-6-6-6-6-|-----------------------------------
D|-----------|-1-1-1-1-1-1-------------------------------8-8-8-8-6-6-6-6-|-----------------------------------|
               * * * * * *   * * * * * *   * * * * * *   * * * * * * * *
Guitar 2
e|-----------------------------------------------------------------------------------------------------------|
B|-----------------------------------------------------------------------------------------------------------|
G|-8-------------------------------------------------------------------------------------4-------------------|
D|----x128-------------------------------------------------------------------4-4-4-------4--x8---------------|
A|-6-----------------------------------------------------------------1--x8---1-1-1-6-6-6-2-----4-4-4---4-4-4-|
D|-------------------------------------------------------------------1-------------6-6-6---------------------|

[Final Chorus]

Guitar 1
e|-------------------------------4x-|-18-----18-----18---------16-----16--19-----19-----19--21------|
B|----------------------------------|---19-18--19-18--19-----18--18-16--19--19-16--19-16--19--19-18-|
G|----------------------------------|-------------------20\18---------------------------------------|
D|-1~-3~-4~--4-4-4----4-4-4-3-3-3-3-|---------------------------------------------------------------|
A|----------------------------------|---------------------------------------------------------------|
D|----------------------------------|---------------------------------------------------------------|

e|------------------------18-----------16------------16--19-----19-----19--21---------------------|
B|-19-19-18-19-19-18-16-18--19-18-16-18--19-18-16--18--19--19-16--19-16--19--19-18-19-19-18-19-19-|
G|-----------------------------------------------18-----------------------------------------------|
D|------------------------------------------------------------------------------------------------|
A|------------------------------------------------------------------------------------------------|
D|------------------------------------------------------------------------------------------------|

Guitar 2
e|------------------------------------------2x-|-----------------------------|-------------1.-|----------2.-||
B|---------------------------------------------|-----------------------------|----------------|-------------||
G|---------3-3-3-6-6-6-6-4---------------------|-------3-3-3-3-6-6-6-6-4-----|----------------|-------------||
D|-1-------4-4-4-6-6-6-6-4--x8---6-6-6-5-5-5-5-|-1-----4-4-4-4-6-6-6-6-4--x8-|-6-6-6-6---xxxx-|-6~-6~-6~-6~-||
A|-1--x8---1-1-1-4-4-4-4-2-------6-6-6-6-6-6-6-|-1--x8-1-1-1-1-4-4-4-4-2-----|-6-6-6-6---xxxx-|-6~-6~-6~-6~-||
D|-1-----------------------------6-6-6-5-5-5-5-|-1---------------------------|-6-6-6-6---xxxx-|-6~-6~-6~-6~-||

[Outro]

Guitar 1
e|---------------------------4x-|----------------------------------------------------------------|
B|------------------------------|----------------------------------------------------------------|
G|------------------------------|----------------------------------------------------------------|
D|-1~-3~-4~--3-4-3-1~-3~-4~--3~-|-1~-3~-4~--3~---1~-3~-4~--4~--1~-3~-4~-3-4-3--1~-3~-4~--3~--1~--|
A|------------------------------|----------------------------------------------------------------|
D|------------------------------|----------------------------------------------------------------|

Guitar 2
e|------------------------------------------------------------|
B|------------------------------------------------------------|
G|-------------------6----4~-4~-4~--4~---4~-4~--6~------------|
D|-1~-1~-1~---1~-1~--6~---4~-4~-4~--4~---4~-4~--6~--1~--------|
A|-1~-1~-1~---1~-1~--4~---2~-2~-2~--2~---2~-2~--4~--1~--------|
D|-1~-1~-1~---1~-1~---------------------------------1~--------|

[Outro Pt. 2 (guitar 1 only)]
e|----------------------------------|------------------------------------------------4x-|
B|-----------------------------2~---|---------------------------------------------------|
G|------3~------3~------3~-----3~---|---------3~-----------3~----------3~------------3~-|
D|-(1~)-----------------------------|---4-4-1--------4-4-1-------4-4-1---------4-4-1----|
A|----------4~------2~-----1~-------|--------------4-----------2------------1~----------|
D|----------------------------------|-1-------------------------------------------------|            
Submit corrections


        Is Nowhere lessons Hard to play? Try these video lessons and learn fast Is Nowhere lessons
        
↑ Back to top | Tablatures and chords for acoustic guitar and electric guitar, ukulele, drums are parodies/interpretations of the original songs. You may use it for private study, scholarship, research or language learning purposes only