» » »

Mayday Parade - Hollow Tabs

Artists:  A B C D E F G H I J K L M N O P Q R S T U V W X Y Z # 

Hollow Tabs

(ver. 1) Click to play this song!
Mayday Parade
 Rating:
4.3/5 (20 votes)

 Hollow  lessons Tabs too difficult? Try these video lessons and learn fast
 
                [Intro] (guitar 2 only):

e|----------------------------------------------------------------------------------|
B|----------------------------------------------------------------------------------|
G|----------------------------------------------------------------------------------|
D|----------------------------------------------------------------------------------|
A|----------------------------------------------------------------------------------|
D|-9-11-11-11-11--xx-11-10-10-10-9-9-9-9-9-7-7-7-7-7--xx-7-4-4-4-2-2-2-2-2----------|


[Verse 1] (guitar 1 only):

e|-0~-----------------------------------------------------------------------------------------|
B|-0~------------------------------------------------------------------There are some guitar--|
G|---------------------------------------------------------------------parts here way too-----|
D|---------------------------------------------------------------------low in the mix to------|
A|-------h4~p2-h4~p2h4~p2h4~p2h4~p2-h4~p2h4~p2h4~p2-------2/4~---------attempt to tab---------|
D|--------------------------------------------------------------------------------------------|
          ^hard to hear, rhythm not 100% accurate         ^00:26   


[Verse Pt. 2]

Guitar 1
e|-----------5-4~--------------------5-4~-----------------------------0~----------0~----|------------0~-|
B|---------5------4b5r~------------5------4b5r~---7-7~----------------0~----------0~----|------------0~-|
G|-------6--------------6--------6-------------------------6~-------------------6-------|----------6----|
D|------------------------6~------------------------------------------------------------|---------------|
A|---------------------------------------------------------4~---------------------------|-44~-444~------|
D|--------------------------------------------------------------------------------------|------------2x-|

Guitar 2
e|------|-------------------------------------------------|-----1.-|-----2.-||
B|------|-------------------------------------------------|--------|--------||
G|------|-6-6-6-6-6-6-6-5-5-5-5-4-4-4~-2-2~-2~-2-2-2------|--------|--------||
D|-xxxx-|-6-6-6-6-6-6-6-5-5-5-5-4-4-4~-2-2~-2~-2-2-2-2-4~-|-4-4-2~-|-x-2-4~-||
A|-xxxx-|-4-4-4-4-4-4-4-3-3-3-3-2-2-2~-0-0~-0~-0-0-0-2-4~-|-4-4-2~-|-x-2-4~-||
D|-xxxx-|--------------------------------------------2-4~-|-4-4-2~-|-x-2-4~-||


[Chorus] (1:26)

Guitar 1
e|-------5-4~--------------------5-4~-----------------11~/12~-------11~/12~\11~/12~---------------------|
B|-----5------4b5r~------------5------4b5r~---7-7~------------------------------------------------------|
G|---6--------------6--------6----------------------------------------------------------/13~-------11~\-|
D|--------------------6~---------------------------------------------------------------------11~--------|
A|------------------------------------------------------------------------------------------------------|
D|------------------------------------------------------------------------------------------------------|

e|------------------------------|---------------------------1.-|-----------------------2.-||
B|------------------------------|------------------------------|--------------------------||
G|-6-6-6-6-6-6-6-5-5-5-5-4-4-4~-|-2-2~-2~-2-2-2----------------|-2~--2-2-2----------------||
D|-6-6-6-6-6-6-6-5-5-5-5-4-4-4~-|-2-2~-2~-2-2-2-2-4-4-4-4-4-2~-|-2~--2-2-2-4~-2-4~-x-2-4~-||
A|-4-4-4-4-4-4-4-3-3-3-3-2-2-2~-|-0-0~-0~-0-0-0-2-4-4-4-4-4-2~-|-0~--0-0-0-4~-2-4~-x-2-4~-||
D|------------------------------|---------------2-4-4-4-4-4-2~-|-----------4~-2-4~-x-2-4~-||


[Bridge] (not 100% accurate):

Guitar 1
e|-----------------------------------------------------------------------------------11b12-b12-b12-b12-|
B|-----------------------------------------------------------------------------------------------------|
G|-(silence)-9-9-9-9----9-9-9-9--------(random feedback noises)----------------------------------------|
D|-----------9-9-9-9----9-9-9-9------------------------------------------------------------------------|
A|-----------7-7-7-7----7-7-7-7------------------------------------------------------------------------|
D|-----------------------------------------------------------------------------------------------------|

Guitar 2
e|----------------------------------------------------------------------------------------------------|
B|----------------------------------12b14r----------------------------12b14--------12b14--------------|
G|------------------------------------------13b14r--11b12r------------------13b14--------13b14--11b12-|
D|-----------6-6-6-6----9-6-6-6-----------------------------6-6-6-6-----------------------------------|
A|-----------7-7-7-7----7-7-7-7-----------------------------7-7-7-7-----------------------------------|
D|----------------------7-6-6-6-----------------------------------------------------------------------|
    

[Bridge Pt 2]

Guitar 1                                                    
e|-11b12~--b12~--b12~--b12~~----b12/17~---14b16~--14b16~--14b16~---b16~~~~~r14-|
B|-----------------------------------------------------------------------------|
G|-----------------------------------------------------------------------------|
D|-----------------------------------------------------------------------------|
A|-----------------------------------------------------------------------------|
D|-----------------------------------------------------------------------------|

e|-11b12~--b12~--b12~--b12~~---16b17---19-19b21~--19b21~--19b21-19b21-|
B|--------------------------------------------------------------------|
G|--------------------------------------------------------------------|
D|--------------------------------------------------------------------|
A|--------------------------------------------------------------------|
D|--------------------------------------------------------------------|


[Final Chorus]

Guitar 1
e|-------5-4~--------------------5-4~-----------------11~/12~-------11~/12~\11~/12~---------------------|
B|-----5------4b5r~------------5------4b5r~---7-7~------------------------------------------------------|
G|---6--------------6--------6----------------------------------------------------------/13~-------11~\-|
D|--------------------6~---------------------------------------------------------------------11~--------|
A|------------------------------------------------------------------------------------------------------|
D|------------------------------------------------------------------------------------------------------|

Guitar 2, 2x
e|-------------------------------------------|-----------1./3.-|-------2./4.-||----------------------||
B|-------------------------------------------|-----------------|-------------||----------------------||
G|-6-6-6-6-6-6-6-5-5-5-5-4-4-4-4-4~-2~-2-2-2-|-----------------|-------------||----------------------||
D|-6-6-6-6-6-6-6-5-5-5-5-4-4-4-4-4~-2~-2-2-2-|-4~-4-4-4-4-4-2~-|-2-4~-x-2-4~-||-x-2-4~--x-2-4-4-4-4~-||
A|-4-4-4-4-4-4-4-3-3-3-3-2-2-2-2-2~-0~-0-0-0-|-4~-4-4-4-4-4-2~-|-2-4~-x-2-4~-||-x-2-4~--x-2-4-4-4-4~-||
D|-------------------------------------------|-4~-4-4-4-4-4-2~-|-2-4~-x-2-4~-||-x-2-4~--x-2-4-4-4-4~-||


[Outro]

Guitar 1
E|----------------------------------------9~-----7-9~--7-9b11~----7-9~----7----------------------------|
B|-----------------------------------9-12-----------------------------------9-7------------------------|
G|------9~~~~~~~~\----9~~~~\----9-11--------------------------------------------9-7-9~~b11-7-9~~~~~~\~-|
D|-----------------11--------11------------------------------------------------------------------------|
A|-----------------------------------------------------------------------------------------------------|
D|-----------------------------------------------------------------------------------------------------|

Guitar 2
e|---------------------------------------------------------------|-------1./2.-|---3.-||
B|---------------------------------------------------------------|-------------|------||
G|---------------------------------------------------------------|-------------|------||
D|---------------------------------------------------------------|-------------|------||
A|---------------------------------------------------------------|-------------|------||
D|-9-11-11-11-11--xx-11-10-10-10-9-9-9-9-9-7-7-7-7-7--xx-7-4-4-4-|-2-2-(pause)-|-2----||            
Submit corrections


        Hollow  lessons Hard to play? Try these video lessons and learn fast Hollow  lessons
        
↑ Back to top | Tablatures and chords for acoustic guitar and electric guitar, ukulele, drums are parodies/interpretations of the original songs. You may use it for private study, scholarship, research or language learning purposes only