» » »

Mayday Parade - Hear The Sound Tabs

Artists:  A B C D E F G H I J K L M N O P Q R S T U V W X Y Z # 

Hear The Sound Tabs

(ver. 1) Click to play this song!
Mayday Parade
 Rating:
2.8/5 (30 votes)

 Hear The Sound  lessons Tabs too difficult? Try these video lessons and learn fast
 
                Intro:

Guitar 1 (clean)
e|-----------------------------------------------------------1-----| 2x, on the second
B|-----3-----3---------3-----3---------3-----3-----------3-----3---| time, stop after
G|---3---3-----3-----3---3-----3-----3---3-----3---3---3---3-----3-| playing the note
D|-5-------5-----5-1-------1-----1---------------------------------| on the E string
A|---------------------------------1-------1-----1---1-------------| and let it ring
D|-----------------------------------------------------------------|

e|-----------------------------------------------------------------|
B|-----------------------------------------------------------------|
G|---------------------------------------------------3~------------|
D|---------------------------------------------------3~------------|
A|---------------------------------------------------1~------------|
D|-----------------------------------------------------------------|
                                                                 
Submit corrections


        Hear The Sound  lessons Hard to play? Try these video lessons and learn fast Hear The Sound  lessons
        
↑ Back to top | Tablatures and chords for acoustic guitar and electric guitar, ukulele, drums are parodies/interpretations of the original songs. You may use it for private study, scholarship, research or language learning purposes only