» » »

Mayday Parade - Get Up Tabs

Artists:  A B C D E F G H I J K L M N O P Q R S T U V W X Y Z # 

Get Up Tabs

(ver. 1) Click to play this song!
Mayday Parade
 Rating:
4/5 (4 votes)

 Get Up lessons Tabs too difficult? Try these video lessons and learn fast
 
                Intro/verse:
phaser
I-GR     00:00\00:12    repeat at  00:25\00:38
e-0/0-0-0-0-0/0-0-0-0-0-0/0-0-0-0-0-0-0-0--0-0-0-0/0-0-0-0-0/0-0-0-0-0-0-0-0-0--0--0--0--0--0-0--0--0-|
b-2/3-3-3-3-2/3-3-5-5-5-2/3-3-3-3-10-10-10-7-7-7-2/3-3-3-3-2/3-3-5-5-5-12-12-12-10-10-7-7-10-10-10-10-|
g-----------------------------------------------------------------------------------------------------|
d-----------------------------------------------------------------------------------------------------|
a-----------------------------------------------------------------------------------------------------|
E-----------------------------------------------------------------------------------------------------|

I-GR  00:12                                   00:25
e--------------------------------------------------------------|
b--3-3-3-3--5-5-5--3-3-3-3--5-5-5--3-3-3-3--5-5-5--3-3-3-3-----|
g--------------------------------------------------------------|
d--------------------------------------------------------------|
a--------------------------------------------------------------|
E--------------------------------------------------------------|
   * * * *  * * *  * * * *  * * *  * * *    * * *  * *


II-GR  00:00                00:38
e---------------------------------|
b---------------------------------|
g-7-7-7-7-------------------------|
d-7-7-7-7-7-7-7-7-9-9-9-9-5-5-5-5-| repeat palm mute verse
a-5-5-5-5-7-7-7-7-9-9-9-9-5-5-5-5-|
E---------5-5-5-5-7-7-7-7-3-3-3-3-|
  *******************************
pre Chorus:

I-GR  00:38                                II-GR  00:48
e----------------------------------- e------------------|
b----------------------------------- b------------------|
g--7~-9~-11~14~-6~-7~-9~-11~7~------ g--7~--------------|
d------------------------------5-5-- d--7~-7~--9~--5-5--|
a--5~-7~-9~-12~-4~-5~-7~-9~-5~-5-5-- a--5~-7~--9~--5-5--|
E------------------------------3-3-- E-----5~--7~--3-3--|

Chorus:
I-GR/II-GR  00:49                        01:00
e-------------------------------------------------|
b-------------------------------------------------|
g-7-7-7-7-----------------------------------------|
d-7-7-7-7-7-7-5-5-5-5-7-7-9-9-9-9-7-7-7-5-5-5-7-7-|
a-5-5-5-5-7-7-5-5-5-5-7-7-9-9-9-9-7-7-7-5-5-5-7-7-|
E---------5-5-3-3-3-3-5-5-7-7-7-7-5-5-5-3-3-3-5-5-|

II-GR 01:01          01:07
e--------------------   -----|
b--------------------X  -----|
g--------------------2  7-7--|
d--9-9-9-7-7-7-5-5-5-   7-7--| end Chorus
a--9-9-9-7-7-7-5-5-5-   5-5--|
E--7-7-7-5-5-5-3-3-3-   -----|


I-GR  01:07                          01:10
e--0-0-0-0---0--0--0-0--0-0-0-0--0--0--0--0--|
b--3p0-2p0---10p0-10p0--3p0-2p0--10p0--10p0--|
g--------------------------------------------|
d--------------------------------------------| end Chorus
a--------------------------------------------|
E--------------------------------------------|

REPEAT verse I-GR II-GR  01:11\01:22

REPEAT pre Chorus 01:22\01:31

REPEAT Chorus I-GR II-GR  01:31\01:57

REPEAT end Chorus II-GR 01:57\02:04

Bridge:
 02:04                 \  phaser /                   02:14    02:14\02:25
e-----------------------------------------------------------|----------------|
b-----------------12/15-14-12--------12/15-14-12------------|----------------|
g--4-4-6-6-7-7---------------14-12-11-----------14-12-11-9~-|--7-7--7-7-7-7--|
d-----------------------------------------------------------|--7-7--7-7-7-7--|
a--2-2-4-4-5-5----------------------------------------------|--5-5--5-5-5-5--|
E-----------------------------------------------------------|----------------|
                                                                    *******
REPEAT end Chorus I-GR 02:20\02:25

REPEAT Chorus II-GR 02:25\02:50

REPEAT end Chorus I-GR 02:50\03:00            
Submit corrections


        Get Up lessons Hard to play? Try these video lessons and learn fast Get Up lessons
        
↑ Back to top | Tablatures and chords for acoustic guitar and electric guitar, ukulele, drums are parodies/interpretations of the original songs. You may use it for private study, scholarship, research or language learning purposes only