» » »

Mayday Parade - A Shot Across The Bow Tabs

Artists:  A B C D E F G H I J K L M N O P Q R S T U V W X Y Z # 

A Shot Across The Bow Tabs

(ver. 1) Click to play this song!
Mayday Parade
 Rating:
4.3/5 (24 votes)

 A Shot Across The Bow lessons Tabs too difficult? Try these video lessons and learn fast
 
                [Intro]

Guitar 1
e|-----------------------------------------------------------------|
B|-----3-3-----3-3-----3-3-----3-3-----3-3-----3-3-----3-3-----3-3-|
G|-----0-0-----0-0-----0-0-----0-0-----0-0-----0-0-----0-0-----0-0-|
D|-----------------------------------------------------------------|
A|-3-3-3-3-3-3-3-3-3-3-3-3-3-3-3-3-3-3-3-3-3-3-3-3-3-3-3-3-3-3-3-3-|
E|-----------------------------------------------------------------|

Guitar 2
e|-----------------------------------------------------------------|
B|---------------------------------8-8-8-8-8-8-8-8-8-8-8-8-8-8-8-8-|
G|------------(silence)----------------7-------7-------7-----7-7-7-|
D|-----------------------------------------------------------------|
A|-----------------------------------------------------------------|
E|-----------------------------------------------------------------|
                                   * *   * * *   * * *   * *
[Verse]

Guitar 1                          
e|-------------------------------------0-0-----0-0-------------0-0---------------------3-3-----3-3-|---------|
B|-----3-3-----3-3-----3-3-----3-3-----1-1-----1-1-----1-1-----1-1---------------------3-3-----3-3-|-----3-3-|
G|-----0-0-----0-0-----0-0-----0-0-----2-2-----2-2-----2-2-----2-2-----2-2-----2-2-----0-0-----0-0-|-----0-0-|
D|-------------------------------------2-2-----2-2-----2-2-----2-2-----3-3-----3-3-----0-0-----0-0-|---------|
A|-3-3-3-3-3-3-3-3-3-3-3-3-3-3-3-3-0-0-0-0-0-0-0-0-0-0-0-0-0-0-0-0-3-3-3-3-3-3-3-3-2-2-2-2-2-2-2-2-|-3-3-3-3-|
E|-----------------------------------------------------------------1-1-1-1-1-1-1-1-3-3-3-3-3-3-3-3-|------4x-|

e|----------------------------------1~---3~-----1~--------------------------|
B|--------1-------------------------1~---3~-----1~--------------------------|
G|-5------2------------------5------2~---4~-----2~--------------------------|
D|-5--x16-2--x16-3-----5-----5--x16-3~---5~-----3~----5~--------5-5-5-5-----|
A|-3------0------3--x8-5--x8-3------3~---5~-----3~----5~-5--x14-2-2-2-2-----|
D|---------------1-----3------------1~---3~-----1~----3~-3------------------|
                                                         *
Guitar 2
e|--------------------------------------------------------------------------------------------------------|
B|-8-8-8-8-8-8-8-8-8-8-8-8-8-8-8-8-8-8-8-8-8-8-8-8-8-8-8-8-8-8-8-8-6-6-6-6-6-6-6-6-8-8-8-8-8-5-5-5-8--x16-|
G|-----7-------7-------7-------7-------9-------9-------9-------9-------5-------5--------------------------|
D|--------------------------------------------------------------------------------------------------------|
A|--------------------------------------------------------------------------------------------------------|
E|--------------------------------------------------------------------------------------------------------|
   * *   * * *   * * *   * * *   * * *   * * *   * * *   * * *   * * *   * * *   * * * * * * * * * * 
e|---------------------------------------------------------------------------------------------3~--5~--7~-8~-|
B|-------------------------------------8--x8-6--x8-8--x8-6-6-6-6-5-5-5-5-8--x8-6-6-6-6-5-5-5-5-3~--3~--3~----|
G|-12------9------10----12------12-------------------------------------------------------------0~--0~--0~~~~-|
D|-----x16----x16----x8-----x16-12--x8-----------------------------------------------------------------------|
A|-10------7------8-----10------10---------------------------------------------------------------------------|
E|-----------------------------------------------------------------------------------------------------------|
                                       *     *     *     * * * * * * * * *     * * * * * * * * 
[Chorus]

Guitar 1
e|----------------------------------------------------------------------------------|
B|----------------------------------------------------------------------------------|
G|-5------------------------------------------5-------------------------------------|
D|-5--x16-5-----6-----7-----5-----3-----5-----5--x16-3------7-----5-----3-----5-----|
A|-3------5--x8-7--x8-7--x8-5--x8-3--x8-5--x8-3------3--x16-7--x8-5--x8-3--x8-5--x8-|
E|--------3-----4-----5-----3-----1-----3------------1------5-----3-----1-----3-----|

Guitar 2
e|-----------------------------------------------------------------------------------------------|
B|-----------------------------------------------------------------------------------------------|
G|-12-----1010-12-10-9-9-9-12-12-----101010/12-10-9-9-5~-5-5-5-5-5-5-7-----10----9-9-9-5/7-7-9-9-|
D|-----x8-------------------------x8------------------------------------x8----x8-----------------|
A|-10-----8-8--10-8--7-7-7-10-10-----8-8-8-/10-8--7-7-3~-3-3-3-3-3-3-5-----8-----7-7-7-3/5-5-7-7-|
E|-----------------------------------------------------------------------------------------------|

e|-------------------------------------------------------------------------------------------|
B|-------------------------------------------------------------------------------------------|
G|-12-----1010-12-10-9-9-9-12-12----10----101010/12-10-9-9-5~-5-5-5-5-5-5-7-----10----12-----|
D|-----x8------------------------x4----x4------------------------------------x8----x8-----x8-|
A|-10-----8-8--10-8--7-7-7-10-10----8-----8-8-8-/10-8--7-7-3~-3-3-3-3-3-3-5-----8-----10-----|
E|-------------------------------------------------------------------------------------------|

[Re-intro]

Guitar 1
e|---------------------------------|
B|-----3-3-----3-3-----3-3-----3-3-|
G|-----0-0-----0-0-----0-0-----0-0-|
D|---------------------------------|
A|-3-3-3-3-3-3-3-3-3-3-3-3-3-3-3-3-|
E|---------------------------------|

Guitar 2
e|---------------------------------|
B|-13--x16-------------------------|
G|---------------------------------|
D|---------------------------------|
A|---------------------------------|
E|---------------------------------|
   *
[Verse 2]

Guitar 1                          
e|-------------------------------------0-0-----0-0-----0-0-----0-0-----1-1-----1-1-----3-3-----3-3-|---------|
B|-----3-3-----3-3-----3-3-----3-3-----1-1-----1-1-----1-1-----1-1-----1-1-----1-1-----3-3-----3-3-|-----3-3-|
G|-----0-0-----0-0-----0-0-----0-0-----2-2-----2-2-----2-2-----2-2-----2-2-----2-2-----0-0-----0-0-|-----0-0-|
D|-------------------------------------2-2-----2-2-----2-2-----2-2-----3-3-----3-3-----0-0-----0-0-|---------|
A|-3-3-3-3-3-3-3-3-3-3-3-3-3-3-3-3-0-0-0-0-0-0-0-0-0-0-0-0-0-0-0-0-3-3-3-3-3-3-3-3-2-2-2-2-2-2-2-2-|-3-3-3-3-|
E|-----------------------------------------------------------------1-1-1-1-1-1-1-1-3-3-3-3-3-3-3-3-|------4x-|

e|---------------------------------------------------------------------------|
B|--------1------------------------------------------------------------------|
G|-5------2------------------5-----------------------------------------------|
D|-5--x16-2--x16-3-----5-----5--x16-7------6------3------5~-5~-5~-5-5~-5~\---|
A|-3------0------3--x8-5--x8-3------7--x16-7--x16-3--x16-5~-5~-5~-5-5~-5~\---|
D|---------------1-----3------------5------4------1------3~-3~-3~-3-3~-3~\---|
                                                         
Guitar 2
e|------|------|---------------------------------------------------------|------|----------|
B|-13---|-12---|-10--10--10--10--------------10--------12--12--12--12-12-|-13---|-15--15---|
G|---12-|---12-|---12--12--12--12-10-10-10-10--10-10-10--12--12--12------|---12-|---12--12-|
D|------|------|---------------------------------------------------------|------|----------|
A|------|------|---------------------------------------------------------|------|----------|
E|---5x-|---7x-|---------------------------------------------------------|---6x-|----------|
     *      *      *   *   *    *  *  *  *  *   *  *  *  *  *  *  *           *      *   * 
e|---------|---------|----------------------------------------------------------------|
B|-8-8-8-8-|-8-8-8-8-|-6-6-6-6-6-6-6-6-8-8-8-8-8-8-8-----------------------3-------3--|
G|-----7---|-----9---|-----5-------5-------9-----9---101010101010-9-9--5p4---5-4h5----|
D|---------|---------|----------------------------------------------------------------|
A|---------|---------|-------------------------------8-8-8-8-8-8--7-7-----------------|
E|------4x-|------4x-|----------------------------------------------------------------|
   * *   *   * *   *   * *   * * *   * * *   * *   *                
e|---------------------------------||-------------------------|---------|---------------7~------------------||
B|-5-------5-------0-----5-6p5-6p5-||-6-------5-------0-----5-|-6p5-6p5-|-6p5-8p5-8---8----8---8-/12~--13~\-||
G|---5-4h5---5-4h5---5-7-----------||---5-4h5---5-4h5---5-7---|---------|-----------9--------9--------------||
D|---------------------------------||-------------------------|---------|-----------------------------------||
A|---------------------------------||-------------------------|---------|-----------------------------------||
E|---------------------------------||-------------------------|------1.-|--------------------------------2.-||

Guitar 3 (harmony)   
e|-------------------------------------------------------------------7---7---7-10~-7---7----------|
B|------------------------------------10-------8--------------8-10p8---8---8---------8---8~---8~\-|
G|------------------(pause)--------------9-7h9---9-7h9-7-9-10-------------------------------------|
D|------------------------------------------------------------------------------------------------|
A|------------------------------------------------------------------------------------------------|
D|------------------------------------------------------------------------------------------------|
                                      ^comes in during 2nd ending for bar above (1:45)
[Chorus]

Guitar 1
e|----------------------------------------------------------------------------------|
B|----------------------------------------------------------------------------------|
G|-5------------------------------------------5-------------------------------------|
D|-5--x16-5-----6-----7-----5-----3-----5-----5--x16-3------7-----5-----3-----5-----|
A|-3------5--x8-7--x8-7--x8-5--x8-3--x8-5--x8-3------3--x16-7--x8-5--x8-3--x8-5--x8-|
E|--------3-----4-----5-----3-----1-----3------------1------5-----3-----1-----3-----|

Guitar 2
e|-----------------------------------------------------------------------------------------------|
B|-----------------------------------------------------------------------------------------------|
G|-12-----1010-12-10-9-9-9-12-12-----101010/12-10-9-9-5~-5-5-5-5-5-5-7-----10----9-9-9-5/7-7-9-9-|
D|-----x8-------------------------x8------------------------------------x8----x8-----------------|
A|-10-----8-8--10-8--7-7-7-10-10-----8-8-8-/10-8--7-7-3~-3-3-3-3-3-3-5-----8-----7-7-7-3/5-5-7-7-|
E|-----------------------------------------------------------------------------------------------|

e|-------------------------------------------------------------------------------------------|
B|-------------------------------------------------------------------------------------------|
G|-12-----1010-12-10-9-9-9-12-12----10----101010/12-10-9-9-5~-5-5-5-5-5-5-7-----10----12-----|
D|-----x8------------------------x4----x4------------------------------------x8----x8-----x8-|
A|-10-----8-8--10-8--7-7-7-10-10----8-----8-8-8-/10-8--7-7-3~-3-3-3-3-3-3-5-----8-----10-----|
E|-------------------------------------------------------------------------------------------|

[Bridge]

Guitar 1
e|-----------------------|-----1.-|----------------------------------------------------------------------2.-||
B|-----------------------|--------|-------------------------------------------------------------------------||
G|-----------------------|--------|-------------------------------------------------------------------------||
D|-7~-7~-7~---5-5~-5~-5~-|-3------|-3~--------7------5------2------3-----5-----7------9------2------3-3~-5~-||
A|-7~-7~-7~---5-5~-5~-5~-|-3--x16-|-3~-3--x14-7--x16-5--x16-2--x16-3--x8-5--x8-7--x16-9--x16-2--x16-3-3~-5~-||
E|-5~-5~-5~---3-3~-3~-3~-|-1------|-1~-1------5------3------0------1-----3-----5------7------0------1-1~-3~-||
                                       * 
Guitar 2                         
e|-0~----0~-0-0-0-------0~-0--|-0~-0-0---------|-0~---0~-0~-||---------17-|-----------------------------17-|
B|----6~----6-6-8-------8~-6~-|-5~-5-5~-6p5-5~-|-5~---6~-8~-||------------|--------------------------------|
G|----------------9p7\5-------|----------------|------------||-19b21-21---|-19b21r-17-19-17-----19b21-21---|
D|----------------------------|----------------|------------||------------|----------------19~-------------|
A|----------------------------|----------------|------------||------------|--------------------------------|
E|----------------------------|-------------1.-|---------2.-||---------3x-|--------------------------------|

e|---------20b22~-20-17-20--17----------------------------------------------------------------------------|
B|------------------------20--20b22~--20b22~--20p18--20-20b22---13-12--------12~--------------------------|
G|-19b21-21----------------------------------------19------------------14~---12~---12~------2-----4-4-4-4-|
D|---------------------------------------------------------------------------12~-------14~-----x8---------|
A|------------------------------------------------------------------------------------------0-----2-2-2-2-|
E|--------------------------------------------------------------------------------------------------------|

e|-----------------------------------12-13-12~----------15~b17r-15b17r~-----15b17r~-----19~-20~---20202020~\-|
B|--------------------------13~-13-15----------13b15r13~-----------------------------------------------------|
G|-5-5-5-5-----7------/7~-----------------------------------------------14~---------16~----------------------|
D|----------x8----x8-----------------------------------------------------------------------------------------|
A|-3-3-3-3-----5---------------------------------------------------------------------------------------------|
E|-----------------------------------------------------------------------------------------------------------|

[Final Chorus/Outro]

Guitar 1
e|-----------------------------------------------------------------------------------------------------------|
B|--------------------------------------------------------------------------------------------------------1~-|
G|5------------------------------------------5------------------------------------------------------------0~-|
D|5--x16-5-----6-----7-----5-----3-----5-----5--x16-3------7-----5-----3-----5-----7-----5-5~-5~-5~-3-----2~-|
A|3------5--x8-7--x8-7--x8-5--x8-3--x8-5--x8-3------3--x16-7--x8-5--x8-3--x8-5--x8-7--x7-5-5~-5~-5~-3--x7-3~-|
E|-------3-----4-----5-----3-----1-----3------------1------5-----3-----1-----3-----5-----3-3~-3~-3~-1--------|

Guitar 2
e|-----------------------------------------------------------------------------------------------|
B|-----------------------------------------------------------------------------------------------|
G|-12-----1010-12-10-9-9-9-12-12-----101010/12-10-9-9-5~-5-5-5-5-5-5-7-----10----9-9-9-5/7-7-9-9-|
D|-----x8-------------------------x8------------------------------------x8----x8-----------------|
A|-10-----8-8--10-8--7-7-7-10-10-----8-8-8-/10-8--7-7-3~-3-3-3-3-3-3-5-----8-----7-7-7-3/5-5-7-7-|
E|-----------------------------------------------------------------------------------------------|

e|---------------------------------12----------------------------------12-----------15~----------|
B|-13-13-13-13-13-13-12-13~---13-13--13-15-13-12-13~---------------------15-13-15-13-----13~-----|
G|---------------------------------------------------14-----12-----1010--------------------------|
D|-10-10-10-10-10-10-------------------------------------x8-----x8-------------------------------|
A|---------------------------------------------------12-----10-----8-8---------------------------|
E|-----------------------------------------------------------------------------------------------|
               
e|-0~----0~-0-0-0-------0~-0~-0~--------------------------------------||
B|----6~----6-6-8-------8~-6~-5~---9~----8~---------------------------||
G|----------------9p7\5------------10~---9~---------------------------||
D|---------------------------------10~---10~--------------------------||
A|--------------------------------------------------------------------||
E|--------------------------------------------------------------------||            
Submit corrections


        A Shot Across The Bow lessons Hard to play? Try these video lessons and learn fast A Shot Across The Bow lessons
        
↑ Back to top | Tablatures and chords for acoustic guitar and electric guitar, ukulele, drums are parodies/interpretations of the original songs. You may use it for private study, scholarship, research or language learning purposes only