» » »

Mayday Parade - Angels Tabs

Artists:  A B C D E F G H I J K L M N O P Q R S T U V W X Y Z # 

Angels Tabs

(ver. 1) Click to play this song!
Mayday Parade
 Rating:
4.3/5 (18 votes)

 Angels lessons Tabs too difficult? Try these video lessons and learn fast
 
                [Intro]
                                                                 
        
e|--2---0-2-----2---|-------|-------------------------|-------|--------------|
B|----3-----3-----3-|-2h3---|-0-------------3---------|----3--|-----2--------|
G|------------------|-----2-|-4----2----2h4---4-2-----|---0-0-|-2--2-2-------|
D|-0----------0-----|-------|---0---0-------------0---|--4---4|---2---2------|
A|------------------|-0-----|-------------------------|-2-----|-0------------|
E|------------------|-------|-3---3--3--3-----------3-|-------|--------------|

       
e|-----2-0-2--|----------------|
B|---3-------3|-7-^------------|
G|------------|-7--------------|
D|-0----------|----------------|
A|------------|----------------|
E|------------|----------------|


[Verse]

                                               
e|-2----0-2---2-----0-2-------|-----|---------------------|-0h2--|
B|---3------3---3-------------|-----|---------------------|-----3|
G|----------------------------|-----|----4-----2-----2----|------|
D|----0-----------0-----------|-4---|------0-----0-----0--|------|
A|----------------------------|-----|---------------------|------|
E|----------------------------|-----|----3---3-----3-----3|------|
Three years of something I call love, When the phone calls and photographs were never enough



e|------------------------|
B|-------3-----------3----|
G|-----0---0-------0---0--|
D|---4-------4---4-------4|
A|-2-----------2----------|
E|------------------------|
To save a heart that's been broken so close to screaming


                                                                           
e|------------------|------|
B|-------2-----0----|-0h2--|
G|-2---2---2-----0--|------|
D|---2-------2-----2|-----0|
A|-0----------------|------|
E|------------------|------|
 This can't be happening, I must be dreaming
                                    


e|-2-----0-2---2------0-2|--|
B|---3-------3---3-------|--|
G|-----------------------|--|
D|-----0------------0----|-4|
A|-----------------------|--|
E|-----------------------|--|
What's the worst that could happen? I never knew


e|------------------|-0h2--|
B|------------------|-----3|
G|-4-----2-----2----|------|
D|---0-----0-----0--|------|
A|------------------|------|
E|-3---3-----3-----3|------|
When all I ever wanted was to get away from you




e|------------------------|
B|-------3-----------3----|
G|-----0---0-------0---0--|
D|---4-------4---4-------4|
A|-2-----------2----------|
E|------------------------|
But now the possible's impossible and I can't refuse



e|------------------------|
B|-------2-----3-----2----|
G|-----2---2-----2-----2--|
D|---2-------2-----2-----2|
A|-0----------------------|
E|------------------------|
Grab all your dreams and raise all your glasses

[Pre-Chorus]

e|------------|------------|------------|
B|-------0----|-------2----|-------0----|
G|-----0---0--|-----2---2--|-----0---0--|
D|---2-------2|---4-------4|---0-------0|
A|------------|------------|------------| Strum A once
E|-0----------|-2----------|-3----------|
Let's toast to the lucky ones, To the girl that just broke my heart...





[Chorus]


D          A                   Bm
   I can't breathe after all that you've told me

               G                 A 
   You took my heart and made me melt again


[Verse 2]

        D
I could never imagine we'd end up this way

      A
After all that we went through now I'm fighting through the pain

               Bm
It's like this heart that's been broken is so close to screaming

    G                      A
Was ripped from my chest and I can't stop the bleeding

       D
Now we all fall for the bad ones

             A                                       Bm
They'll just break us cause we're so young, dumb and vulnerable

          A
Young and vulnerable

[Pre-Chorus]

         Em           F#m
Here's a toast to the lucky ones

       G              A 
To the girl that just broke my heart


[Chorus]


D           A        Bm
  I can't breathe after all that you've told me
 (You ripped apart these pages, our book was overrated)
                G                A
  You took my heart and made me melt again
 (This brings up all these questions, tell me what just happened, I'll say)

[bridge]
             G                                       D 
I put your picture in a frame that stands at the side of my bed
       A                      G
So whenever I get sad I can stare at your face
                         D   
And overplay that I won't forget 
      A                 G                         A
When all I remember is talking is cheap and your lies were expensive
    Bm                        A
And God only knows when I'll come to my senses
    G         A        Bm
Now I can't breathe at all (now I can't breathe)

[Pre-Chorus]
          Em                           F#m
Here's a toast (here's a toast) to the lucky ones (to the lucky ones)
        G               A
To the girl that just broke my heart

[chorus]
D           A                Bm
  I can't breathe after all that you've told me
 (You ripped apart these pages, our book was overrated)
Bm              G                A
  You took my heart and made me melt again
 (This brings up all these questions...tell me what happened)

Bm  C#m     D            A               G
  I can't breathe after all that you've told me
 (You ripped apart these pages, our book was overrated)
G               A                     D 
  You took my heart and made me melt again!
 (This brings up all these questions, tell me what just happened, I'll say)
 G                 A       D
Tell me what just happened            
Submit corrections


        Angels lessons Hard to play? Try these video lessons and learn fast Angels lessons
        
↑ Back to top | Tablatures and chords for acoustic guitar and electric guitar, ukulele, drums are parodies/interpretations of the original songs. You may use it for private study, scholarship, research or language learning purposes only