» » »

Mayday Parade - Always Leaving Chords

Artists:  A B C D E F G H I J K L M N O P Q R S T U V W X Y Z # 

Always Leaving Chords

(ver. 1) Click to play this song!
Mayday Parade
 Rating:
4.4/5 (5 votes)

 Always Leaving lessons Tabs too difficult? Try these video lessons and learn fast
 
                [Intro]
   A       D      A       A       D       F#m             A       D       E       A               E
e|----------2----0-0---------------2----2--2-------2---------------2----0--0-----------------------------|
B|--2----2-----3----2------2----2-----3---------2-------2--2----2-----3---------3--2----2--2----2--0----2|
G|-----2----------------------2---------------2-------2-------2---------------1-------2-------2-------1--|
D|------------0----------------------0-------------------------------0-------2-----------------------2---|
A|----0----------------------0-------------------------------0-----------------------0-------0-----------|
E|-------------------------------------------2-------2---------------------------------------------------|

   A                       E       A
e|------------------------------------------------|
B|-----2---2---2----2----2--0----2-----2---2---2--|
G|--2----2---2---2-----2-------1----2----2---2---2|
D|----------------------------2-------------------|    {Play x3}
A|----0---------------0---------------0-----------|
E|------------------------------------------------|

[Verse 1]
A          D           A
Kindly disregard this one feeling
     A             D               F#m
My clothes on the floor can be misleading
    A                 D               E              A
As soon as they're unpacked, they'll need to be put back
  A               E          A
To me, it always seems I am leaving
        A             E           A
Yes, to me it always seems I am leaving

[Verse 2]
     A       D      A
This bed can be decieving
           A         D    F#m
'Cause my time here is so fleeting
       A              D         E      A
These bones hold the load of the open road
  A               E          A
To me, it always seems I am leaving
         A           E          A        A7
Well, to me it just seems I am leaving

[Chorus]
    D               A               D               F#m             D               A
e|--2----2--5-------0----0----------2----2--5-------2-------2-------2----2--5-------0----0--------|
B|-----3---------------2----2----2-----3-----------------2-------2-----3---------------2----2----2|
G|-------------6-7-------------2---------------6-7-----2-------2---------------6-7-------------2--|
D|----0-------0-----------------------0-------0-----------------------0-------0-------------------|
A|--------------------0-------0-------------------------------------------------------0-------0---|
E|----------------------------------------------------2-------2-----------------------------------|
    E               A
e|--------------------------------|
B|--0----0--0----0--3----3--2----2|
G|-----1-------1-------1-------2--|
D|----2-------2-------2-----------|    {Play x1}
A|----------------------------2p0-|
E|--------------------------------|
    D                  A
As soon as I arrive, I must say goodbye
D                    F#m
All this despite my pleading
 D                         A
Those relentless miles are never satisfied
       E          A
Never say you're here to stay

    A  D  A       A  D  A       A  D  A       A
e|--------------------------------------------------------|
B|--2--3--2----2--2--3--2----2--2--3--2----2--2--2--2--2--|
G|--2--2-----2----2--2-----2----2--2-----2----2--2--2--2--|
D|--2--0----------2--0----------2--0----------2--2--2--2--|    {Play x1}
A|--0--0----0-----0--0----0-----0--0----0-----0--0--0--0--|
E|--------------------------------------------------------|

   A       D      A       A       D       F#m             A       D       E       A               E
e|----------2----0-0---------------2----2--2-------2---------------2----0--0-----------------------------|
B|--2----2-----3----2------2----2-----3---------2-------2--2----2-----3---------3--2----2--2----2--0----2|
G|-----2----------------------2---------------2-------2-------2---------------1-------2-------2-------1--|
D|------------0----------------------0-------------------------------0-------2-----------------------2---|
A|----0----------------------0-------------------------------0-----------------------0-------0-----------|
E|-------------------------------------------2-------2---------------------------------------------------|

   A                       E       A
e|------------------------------------------------|
B|-----2---2---2----2----2--0----2-----2---2---2--|
G|--2----2---2---2-----2-------1----2----2---2---2|
D|----------------------------2-------------------|    {Play x2}
A|----0---------------0---------------0-----------|
E|------------------------------------------------|

[Bridge]
A          D           A
Tangled friends start unweaving
       A              D       F#m
Like a thread from a quilt receding
     A          D        E              A
Even though I'm home, I feel the most alone
   A              E         A   
To me, it always seems I am leaving
        A             E         A          A7
Well, to me it always seems I am leaving
 
[Chorus]
    D               A               D               F#m             D               A
e|--2----2--5-------0----0----------2----2--5-------2-------2-------2----2--5-------0----0--------|
B|-----3---------------2----2----2-----3-----------------2-------2-----3---------------2----2----2|
G|-------------6-7-------------2---------------6-7-----2-------2---------------6-7-------------2--|
D|----0-------0-----------------------0-------0-----------------------0-------0-------------------|
A|--------------------0-------0-------------------------------------------------------0-------0---|
E|----------------------------------------------------2-------2-----------------------------------|

    E               A
e|--------------------------------|
B|--0----0--0----0--3----3--2----2|
G|-----1-------1-------1-------2--|
D|----2-------2-------2-----------|    {Play x1}
A|----------------------------2p0-|
E|--------------------------------|

   D                   A
As soon as I arrive, I must say goodbye
D                     F#m
All this despite my pleading
 D                         A
Those relentless miles are never satisfied
       E          A
Never say you're here to stay

    A  D  A       A  D  A       A  D  A       A
e|--------------------------------------------------------|
B|--2--3--2----2--2--3--2----2--2--3--2----2--2--2--2--2--|
G|--2--2-----2----2--2-----2----2--2-----2----2--2--2--2--|
D|--2--0----------2--0----------2--0----------2--2--2--2--|    {Play x1}
A|--0--0----0-----0--0----0-----0--0----0-----0--0--0--0--|
E|--------------------------------------------------------|

   A       D      A       A       D       F#m             A       D       E       A               E
e|----------2----0-0---------------2----2--2-------2---------------2----0--0-----------------------------|
B|--2----2-----3----2------2----2-----3---------2-------2--2----2-----3---------3--2----2--2----2--0----2|
G|-----2----------------------2---------------2-------2-------2---------------1-------2-------2-------1--|
D|------------0----------------------0-------------------------------0-------2-----------------------2---|
A|----0----------------------0-------------------------------0-----------------------0-------0-----------|
E|-------------------------------------------2-------2---------------------------------------------------|

   A                       E       A*
e|------------------------------------------------|
B|-----2---2---2----2----2--0----2-----2---2---2--|
G|--2----2---2---2-----2-------1----2----2---2---2|
D|----------------------------2-------------------|    {Play x2}
A|----0---------------0---------------0-----------|
E|------------------------------------------------|
*don't play on last repeat

[Outro]
      A         D     A                   D           F#m
There's no point in grieving, this pattern is just repeating
    A                  D                 E             A
I've seen those tears before and there's something I ignore
    A           E          A
To me it always seems I am leaving
         A            E          A
Well, to me it always seems I am gone
            
Submit corrections


        Always Leaving lessons Hard to play? Try these video lessons and learn fast Always Leaving lessons
        
↑ Back to top | Tablatures and chords for acoustic guitar and electric guitar, ukulele, drums are parodies/interpretations of the original songs. You may use it for private study, scholarship, research or language learning purposes only