Home » M » Maroon 5 »

Maroon 5 - Memories Tabs

Artists:  A B C D E F G H I J K L M N O P Q R S T U V W X Y Z # 

Memories Tabs

(ver. 2) Click to play this song!
Maroon 5
[Intro]
 
e|-----------------------------------------------------------------|
B|-----3-------------------------------------3---------------------|
G|-----0------7-----4-----------------------0----------------------|
D|---0-----7-7------5------9-------10---0----------10---------12---|
A|--------5-------5------9-9---10-10-----------10-10-----12-12-----|
E|-3------------0------7------8---------3------8--------10---------| 
 
[Chorus]
 
e|----------------------------------------------------------------------------------|
B|-3-0-1-3-0-1-3---3--------------------------------------------3----------------3--|
G|-0-----------------2--4-----4----4----4------------------------0-----------0---0--|
D|----------0------0----5-5h7-5h7-5h7--7-5-2-2-2-2-0-2-0-0--0-0h2-2-2--4------------|
A|-----------------------------------------------3---------------------3---------5--|
E|-3--------------------0-------7--------------------------3------------------------| 
 
e|------------------------------------------------------------------------------|
B|-3-0-1-3-0-1-3---3--------------------------------------------3---------------|
G|-0-----------------2--4-----4----4----4------------------------0-----------0--|
D|----------0------0----5-5h7-5h7-5h7--7-5-2-2-2-2-0-2-0-0--0-0h2-2-2-----------|
A|-----------------------------------------------3---------------------3--------|
E|-3--------------------0-------7--------------------------3--------------------| 
 
e|-----------------------------------|
B|-----------------------------------|
G|----------0-0----------------------|
D|-4-4-4-4---0-----------------------|
A|-5---------------------------------|
E|-------------3---------------------| 
 
[Verse 1]
 
e|------------------------------------------------|
B|-------0-3-3-0-3/5-0--0-------------------------|
G|-0h2-0-----------------0----4-4h5-5-4-----4-----|
D|----------------0-----0----7---5--------5---5---|
A|------------------------------------------------|
E|------3-------------------------0--------7-7----| 
 
e|--------------------------------------------------|
B|---0--0h1-1-0-0------------0h1-----3--------------|
G|-2----0----------2-0--0-0-0----2---2--------------|
D|----------------------------------0-0-------------|
A|------3-------------------3-----------------------|
E|----------------3-----3---------------------------| 
 
e|-----------------------------------------------------|
B|-------0-3-3-0-3/5-0--0------------------------------|
G|-0h2-0-----------------0----4-4h5-5/7-5-4-----4------|
D|----------------0-----0----7---5-------------5---5---|
A|-----------------------------------------------------|
E|------3-------------------------0-------------7-7----| 
 
e|--------------------------------------------------|
B|---0--0h1-1-0-0------------0h1-----3--------------|
G|-2----0----------2-0--0-0-0----2---2--------------|
D|----------------------------------0-0-------------|
A|------3-------------------3-----------------------|
E|----------------3-----3---------------------------| 
 
e|--------------------------------------------------------------|
B|-------------------------------------------0-------------3----|
G|---0-0-0-/4------------4------0---0-0-0--0-0--0-0-0--0---0----|
D|--0------/5-5-5-/5-5-5-5--------2------------------------4----|
A|---------/5-------7--------9-9--3---------------3---------5---|
E|-3----------------0--------7--------------3-------------------| 
 
[Chorus]
 
e|------------------------------------------------------------------------------------|
B|-3-0-1-3-0-1-3---3--------------------------------------------3----------------3----|
G|-0-----------------2--4-----4----4----4------------------------0-----------0---0----|
D|----------0------0----5-5h7-5h7-5h7--7-5-2-2-2-2-0-2-0-0--0-0h2-2-2--4--------------|
A|-----------------------------------------------3---------------------3---------5----|
E|-3--------------------0-------7--------------------------3--------------------------| 
 
e|------------------------------------------------------------------------------|
B|-3-0-1-3-0-1-3---3--------------------------------------------3---------------|
G|-0-----------------2--4-----4----4----4------------------------0-----------0--|
D|----------0------0----5-5h7-5h7-5h7--7-5-2-2-2-2-0-2-0-0--0-0h2-2-2-----------|
A|-----------------------------------------------3---------------------3--------|
E|-3--------------------0-------7--------------------------3--------------------| 
 
e|---------------------------------|
B|---------------------------------|
G|----------0----------------------|
D|-4-4-4-4-------------------------|
A|-5-------------------------------|
E|---------------------------------| 
 
e|------------------------------------------------------------------------------|
B|---3-0---------------1-0---------------1-0----------------3-------------------|
G|-0----2-2-2-0---2/4----2-2-2-0--2/4----2-2-2-0-0-0-0--0---------0-0-----------|
D|-0----0--------------------------------------------------------4-4-4-4--0-----|
A|----------------------------2------3-----------------3---------5--------------|
E|-3--------------0-----------------------------3--------------------------3----| 
 
e|------------------------------------------------|
B|-------0-3-3-0-3/5-0--0-------------------------|
G|-0h2-0-----------------0----4-4h5-5-4-----4-----|
D|----------------0-----0----7---5--------5---5---|
A|------------------------------------------------|
E|------3------x----------x------0------x-7-7-x---| 
 
e|---------------------------------------------------|
B|---0--0h1-1-0-0-------------0h1----3/5-3-----------|
G|-2----0----------2-0---0-0-0-----2-----------------|
D|------------------------------------0--------------|
A|------3--------------------3-----------------------|
E|-------------x--3-----x--------x-----------x-------| 
 
[Verse 2]
 
e|-------------------------------------------------|
B|-------0-3-3-0-3/5-0--0--------------------------|
G|-0h2-0-----------------0----4-4h5-4-5-4-5-4------|
D|----------------0-----0----7---5-----------------|
A|-------------------------------------------------|
E|------3------x----------x------0--------x--7---x-| 
 
e|--------------------------------------------------|
B|---0--0h1-1-0-0-------------0h1-------------------|
G|-2----0----------2-0---0-0-0-----2--2/4-2---------|
D|------------------------------------0-------------|
A|------3--------------------3----------------------|
E|-------------x--3-----x--------x-----------x------| 
 
e|------------------------------------------------------------------|
B|-------------------------------------------0-------------3--------|
G|---0-0-0-/4------------4------0---0-0-0--0-0--0-0-0--0---0--------|
D|--0------/5-5-5-/5-5-5-5--------2------------------------4--------|
A|---------/5-------7--------9-9--3----------------3--------5-------|
E|-3---x---------x-0-----x--7-x-------x---3---x---------x----x------| 
 
[Chorus]
 
e|----------------------------------------------------------------------------------|
B|-3-0-1-3-0-1-3---3--------------------------------------------3----------------3--|
G|-0-----------------2--4-----4----4----4------------------------0-----------0---0--|
D|----------0------0----5-5h7-5h7-5h7--7-5-2-2-2-2-0-2-0-0--0-0h2-2-2--4------------|
A|-----------------------------------------------3---------------------3---------5--|
E|-3-----x-----------x----0---x7--------x----------x------3-----x-----------x----x--| 
 
e|------------------------------------------------------------------------------|
B|-3-0-1-3-0-1-3---3--------------------------------------------3---------------|
G|-0-----------------2--4-----4----4----4------------------------0-----------0--|
D|----------0------0----5-5h7-5h7-5h7--7-5-2-2-2-2-0-2-0-0--0-0h2-2-2-----------|
A|-----------------------------------------------3---------------------3--------|
E|-3-----x----------x---0-----x7--------x----------x------3-----x----------x----| 
 
e|---------------------------------|
B|---------------------------------|
G|----------0----------------------|
D|-4-4-4-4-------------------------|
A|-5-------------------------------|
E|--------x------------------------| 
 
e|------------------------------------------------------------------------------|
B|---3-0---------------1-0---------------1-0----------------3-------------------|
G|-0----2-2-2-0---2/4----2-2-2-0--2/4----2-2-2-0-0-0-0--0---------0-------------|
D|-0----0--------------------------------------------------------4-4-4-4--------|
A|----------------------------2------3-----------------3---------5--------------|
E|-3-x------x----0-----x--------x---------x---3-x----------x----------x---------| 
 
e|------------------------------------------------------------------------------|
B|---3-0---------------1-0---------------1-0----------------3-------------------|
G|-0----2-2-2-0---2/4----2-2-2-0--2/4----2-2-2-0-0-0-0--0---------0-------------|
D|-0----0--------------------------------------------------------4-4-4-4--------|
A|----------------------------2------3-----------------3---------5--------------|
E|-3-x------x----0-----x--------x---------x---3-x----------x----------x---------| 
 
[Outro]
 
e|---------------------------------------------------------------------|
B|-----3-------------------------------------3--------3----------------|
G|-----0------7-----4-----------------------0--0-0-0-0---------0-0-----|
D|---0-----7-7------5------9-------10---0-------------4-4-4-4---0------|
A|--------5-------5------9-9---10-10---------3--------5----------------|
E|-3------------0------7------8---------3--------------------------3---| 
            
Submit corrections

↑ Back to top | Tablatures and chords for acoustic guitar and electric guitar, ukulele, drums are parodies/interpretations of the original songs. You may use it for private study, scholarship, research or language learning purposes only