» » »

Maroon 5 - Memories Tabs

Artists:  A B C D E F G H I J K L M N O P Q R S T U V W X Y Z # 

Memories Tabs

(ver. 1) Click to play this song!
Maroon 5
 Rating:
4/5 (14 votes)

 Memories lessons Tabs too difficult? Try these video lessons and learn fast
 
                [Intro]

     B        F#        G#m     D#m      E       B        E       F#
e|---------------------------------------------------------------------------|
B|-----4----------2-----------------7-------0---------4-------0-----2--------|
G|-----4----------3--------4--------8-------1---------4-------1-----3--------|
D|---4---------------------6-------------------------------------------------|
A|-2---------------------6---6------------2---2-------------2----------------|
E|-----------2---------4----------------0-----------------0------2-----------|


[Chorus]

     B        F#        G#m     D#m      E       B        E       F#
e|---------------------------------------------------------------------------|
B|-----4----------2-----------------7-------0---------4-------0-----2--------|
G|-----4----------3--------4--------8-------1---------4-------1-----3--------|
D|---4---------------------6-------------------------------------------------|
A|-2---------------------6---6------------2---2-------------2----------------|
E|-----------2---------4----------------0-----------------0------2-----------|

     B        F#        G#m     D#m      E       B        E       F#
e|---------------------------------------------------------------------------|
B|-----4----------2-----------------7-------0---------4-------0-----2--------|
G|-----4----------3--------4--------8-------1---------4-------1-----3--------|
D|---4---------------------6-------------------------------------------------|
A|-2---------------------6---6------------2---2-------------2----------------|
E|-----------2---------4----------------0-----------------0------2-----------|


[Verse 1]
     B        F#        G#m     D#m      E       B        E       F#
e|---------------------------------------------------------------------------|
B|-----4----------2-----------------7-------0---------4-------0-----2--------|
G|-----4----------3--------4--------8-------1---------4-------1-----3--------|
D|---4---------------------6-------------------------------------------------|
A|-2---------------------6---6------------2---2-------------2----------------|
E|-----------2---------4----------------0-----------------0------2-----------|

     B        F#        G#m     D#m      E       B        E       F#
e|---------------------------------------------------------------------------|
B|-----4----------2-----------------7-------0---------4-------0-----2--------|
G|-----4----------3--------4--------8-------1---------4-------1-----3--------|
D|---4---------------------6-------------------------------------------------|
A|-2---------------------6---6------------2---2-------------2----------------|
E|-----------2---------4----------------0-----------------0------2-----------|


[Pre-Chorus]

     B        F#        G#m     D#m      E       B        E       F#
e|---------------------------------------------------------------------------|
B|-----4----------2-----------------7-------0---------4-------0-----2--------|
G|-----4----------3--------4--------8-------1---------4-------1-----3--------|
D|---4---------------------6-------------------------------------------------|
A|-2---------------------6---6------------2---2-------------2----------------|
E|-----------2---------4----------------0-----------------0------2-----------|


[Chorus]

     B        F#        G#m     D#m      E       B        E       F#
e|---------------------------------------------------------------------------|
B|-----4----------2-----------------7-------0---------4-------0-----2--------|
G|-----4----------3--------4--------8-------1---------4-------1-----3--------|
D|---4---------------------6-------------------------------------------------|
A|-2---------------------6---6------------2---2-------------2----------------|
E|-----------2---------4----------------0-----------------0------2-----------|

     B        F#        G#m     D#m      E       B        E       F#
e|---------------------------------------------------------------------------|
B|-----4----------2-----------------7-------0---------4-------0-----2--------|
G|-----4----------3--------4--------8-------1---------4-------1-----3--------|
D|---4---------------------6-------------------------------------------------|
A|-2---------------------6---6------------2---2-------------2----------------|
E|-----------2---------4----------------0-----------------0------2-----------|


[Post-Chorus]

     B        F#        G#m     D#m      E       B        E       F#
e|---------------------------------------------------------------------------|
B|-----4----------2-----------------7-------0---------4-------0-----2--------|
G|-----4----------3--------4--------8-------1---------4-------1-----3--------|
D|---4---------------------6-------------------------------------------------|
A|-2---------------------6---6------------2---2-------------2----------------|
E|-----------2---------4----------------0-----------------0------2-----------|


[Verse 2]

     B        F#        G#m     D#m      E       B        E       F#
e|---------------------------------------------------------------------------|
B|-----4----------2-----------------7-------0---------4-------0-----2--------|
G|-----4----------3--------4--------8-------1---------4-------1-----3--------|
D|---4---------------------6-------------------------------------------------|
A|-2---------------------6---6------------2---2-------------2----------------|
E|-----------2---------4----------------0-----------------0------2-----------|

     B        F#        G#m     D#m      E       B        E       F#
e|---------------------------------------------------------------------------|
B|-----4----------2-----------------7-------0---------4-------0-----2--------|
G|-----4----------3--------4--------8-------1---------4-------1-----3--------|
D|---4---------------------6-------------------------------------------------|
A|-2---------------------6---6------------2---2-------------2----------------|
E|-----------2---------4----------------0-----------------0------2-----------|


[Pre-Chorus]

     B        F#        G#m     D#m      E       B        E       F#
e|---------------------------------------------------------------------------|
B|-----4----------2-----------------7-------0---------4-------0-----2--------|
G|-----4----------3--------4--------8-------1---------4-------1-----3--------|
D|---4---------------------6-------------------------------------------------|
A|-2---------------------6---6------------2---2-------------2----------------|
E|-----------2---------4----------------0-----------------0------2-----------|


[Chorus]

     B        F#        G#m     D#m      E       B        E       F#
e|---------------------------------------------------------------------------|
B|-----4----------2-----------------7-------0---------4-------0-----2--------|
G|-----4----------3--------4--------8-------1---------4-------1-----3--------|
D|---4---------------------6-------------------------------------------------|
A|-2---------------------6---6------------2---2-------------2----------------|
E|-----------2---------4----------------0-----------------0------2-----------|

     B        F#        G#m     D#m      E       B        E       F#
e|---------------------------------------------------------------------------|
B|-----4----------2-----------------7-------0---------4-------0-----2--------|
G|-----4----------3--------4--------8-------1---------4-------1-----3--------|
D|---4---------------------6-------------------------------------------------|
A|-2---------------------6---6------------2---2-------------2----------------|
E|-----------2---------4----------------0-----------------0------2-----------|


[Post-Chorus]

     B        F#        G#m     D#m      E       B        E       F#
e|---------------------------------------------------------------------------|
B|-----4----------2-----------------7-------0---------4-------0-----2--------|
G|-----4----------3--------4--------8-------1---------4-------1-----3--------|
D|---4---------------------6-------------------------------------------------|
A|-2---------------------6---6------------2---2-------------2----------------|
E|-----------2---------4----------------0-----------------0------2-----------|


[Outro]

     B        F#        G#m     D#m      E       B        E       F#
e|---------------------------------------------------------------------------|
B|-----4----------2-----------------7-------0---------4-------0-----2--------|
G|-----4----------3--------4--------8-------1---------4-------1-----3--------|
D|---4---------------------6-------------------------------------------------|
A|-2---------------------6---6------------2---2-------------2----------------|
E|-----------2---------4----------------0-----------------0------2-----------|
            
Submit corrections


        Memories lessons Hard to play? Try these video lessons and learn fast Memories lessons
        
↑ Back to top | Tablatures and chords for acoustic guitar and electric guitar, ukulele, drums are parodies/interpretations of the original songs. You may use it for private study, scholarship, research or language learning purposes only