» » »

Maroon 5 - Dont Wanna Know Tabs

Artists:  A B C D E F G H I J K L M N O P Q R S T U V W X Y Z # 

Dont Wanna Know Tabs

(ver. 2) Click to play this song!
Maroon 5
 Rating:
4.2/5 (30 votes)


 Dont Wanna Know  lessons Tabs too difficult? Try these video lessons and learn fast
 
                [INTRO]
(all downstokes)
0.00 - 0.08
e|-3--3--3--3--3-3-|-2--2--2--2--2-2-|-3--3--3--3--3-3-|-2--2--2--2--2-2-|
B|-3--3--3--3--3-3-|-3--3--3--3--3-3-|-3--3--3--3--3-3-|-0--0--0--0--0-0-|
G|-0--0--0--0--0-0-|-2--2--2--2--2-2-|-0--0--0--0--0-0-|-0--0--0--0--0-0-| x1
D|-2--2--2--2--2-2-|-0--0--0--0--0-0-|-2--2--2--2--2-2-|-2--2--2--2--2-2-|
A|-3--3--3--3--3-3-|-----------------|-2--2--2--2--2-2-|-2--2--2--2--2-2-|
E|-----------------|-----------------|-----------------|-----------------|
   .....................................................................



[CHORUS]
0.09 - 0.28
"I don't wanna know know know, who's taking you home, home home..."
e|-3--3--3--3-3-3-3-3-|-2--2--2--2-2-2-2-2-|-3--3--3--3-3-3-3-3-|-2--2--2--2-2-2-2-2-|
B|-2--2--2--2-2-2-2-2-|-3--3--3--3-3-3-3-3-|-3--3--3--3-3-3-3-3-|-0--0--0--0-0-0-0-0-|
G|-0--0--0--0-0-0-0-0-|-2--2--2--2-2-2-2-2-|-0--0--0--0-0-0-0-0-|-0--0--0--0-0-0-0-0-| x2
D|-2--2--2--2-2-2-2-2-|-0--0--0--0-0-0-0-0-|-2--2--2--2-2-2-2-2-|-2--2--2--2-2-2-2-2-|
A|-3--3--3--3-3-3-3-3-|--------------------|-2--2--2--2-2-2-2-2-|-2--2--2--2-2-2-2-2-|
E|--------------------|--------------------|--------------------|--------------------|
   U  U  U  U D U D U  U  U  U  U D U D U    U  U  U  U D U D U   U  U  U  U D U D U



[VERSE]
0.29 - 0.48
"Wasted, and the more I drink the more I think about you..."
e|-3---------------|-2---------------|-3---------------|-2---------------|
B|-3---------------|-3---------------|-3---------------|-0---------------|
G|-0---------------|-2---------------|-0---------------|-0---------------| x2
D|-2---------------|-0---------------|-2---------------|-2---------------|
A|-3---------------|-----------------|-2---------------|-2---------------|
E|-----------------|-----------------|-----------------|-----------------|



[PRE-CHORUS]
0.49 - 1.05
"Do you think of me, of what we used to be..."
e|-3--3--3---------|-2--2--2---------|-3--3--3---------|-2--2--2---------|
B|-3--3--3---------|-3--3--3---------|-3--3--3---------|-0--0--0---------|
G|-0--0--0---------|-2--2--2---------|-0--0--0---------|-0--0--0---------| x2
D|-2--2--2---------|-0--0--0---------|-2--2--2---------|-2--2--2---------|
A|-3--3--3---------|-----------------|-2--2--2---------|-2--2--2---------|
E|-----------------|-----------------|-----------------|-----------------|
   U  U  U           U  U  U           U  U  U           U  U  U



[CHORUS]
1.06 - 1.26
"I don't wanna know know know, who's taking you home, home home..."
e|-3--3--3--3-3-3-3-3-|-2--2--2--2-2-2-2-2-|-3--3--3--3-3-3-3-3-|-2--2--2--2-2-2-2-2-|
B|-2--2--2--2-2-2-2-2-|-3--3--3--3-3-3-3-3-|-3--3--3--3-3-3-3-3-|-0--0--0--0-0-0-0-0-|
G|-0--0--0--0-0-0-0-0-|-2--2--2--2-2-2-2-2-|-0--0--0--0-0-0-0-0-|-0--0--0--0-0-0-0-0-| x2
D|-2--2--2--2-2-2-2-2-|-0--0--0--0-0-0-0-0-|-2--2--2--2-2-2-2-2-|-2--2--2--2-2-2-2-2-|
A|-3--3--3--3-3-3-3-3-|--------------------|-2--2--2--2-2-2-2-2-|-2--2--2--2-2-2-2-2-|
E|--------------------|--------------------|--------------------|--------------------|
   U  U  U  U D U D U  U  U  U  U D U D U    U  U  U  U D U D U   U  U  U  U D U D U



[VERSE]
1.27 - 1.45
"And every time I go out..."
e|-3---------------|-2---------------|-3---------------|-2---------------|
B|-3---------------|-3---------------|-3---------------|-0---------------|
G|-0---------------|-2---------------|-0---------------|-0---------------| x2
D|-2---------------|-0---------------|-2---------------|-2---------------|
A|-3---------------|-----------------|-2---------------|-2---------------|
E|-----------------|-----------------|-----------------|-----------------|



[PRE-CHORUS]
1.46 - 2.03
"Do you think of me, of what we used to be..."
e|-3--3--3---------|-2--2--2---------|-3--3--3---------|-2--2--2---------|
B|-3--3--3---------|-3--3--3---------|-3--3--3---------|-0--0--0---------|
G|-0--0--0---------|-2--2--2---------|-0--0--0---------|-0--0--0---------| x2
D|-2--2--2---------|-0--0--0---------|-2--2--2---------|-2--2--2---------|
A|-3--3--3---------|-----------------|-2--2--2---------|-2--2--2---------|
E|-----------------|-----------------|-----------------|-----------------|
   U  U  U           U  U  U           U  U  U           U  U  U



[CHORUS]
2.04 - 2.24
"I don't wanna know know know, who's taking you home, home home..."
e|-3--3--3--3-3-3-3-3-|-2--2--2--2-2-2-2-2-|-3--3--3--3-3-3-3-3-|-2--2--2--2-2-2-2-2-|
B|-2--2--2--2-2-2-2-2-|-3--3--3--3-3-3-3-3-|-3--3--3--3-3-3-3-3-|-0--0--0--0-0-0-0-0-|
G|-0--0--0--0-0-0-0-0-|-2--2--2--2-2-2-2-2-|-0--0--0--0-0-0-0-0-|-0--0--0--0-0-0-0-0-| x2
D|-2--2--2--2-2-2-2-2-|-0--0--0--0-0-0-0-0-|-2--2--2--2-2-2-2-2-|-2--2--2--2-2-2-2-2-|
A|-3--3--3--3-3-3-3-3-|--------------------|-2--2--2--2-2-2-2-2-|-2--2--2--2-2-2-2-2-|
E|--------------------|--------------------|--------------------|--------------------|
   U  U  U  U D U D U  U  U  U  U D U D U    U  U  U  U D U D U   U  U  U  U D U D U 



[RAP BREAK]
(PLAY INTRO -all downstokes)
2.25 - 2.42
e|-3--3--3--3--3-3-|-2--2--2--2--2-2-|-3--3--3--3--3-3-|-2--2--2--2--2-2-|
B|-3--3--3--3--3-3-|-3--3--3--3--3-3-|-3--3--3--3--3-3-|-0--0--0--0--0-0-|
G|-0--0--0--0--0-0-|-2--2--2--2--2-2-|-0--0--0--0--0-0-|-0--0--0--0--0-0-| x4
D|-2--2--2--2--2-2-|-0--0--0--0--0-0-|-2--2--2--2--2-2-|-2--2--2--2--2-2-|
A|-3--3--3--3--3-3-|-----------------|-2--2--2--2--2-2-|-2--2--2--2--2-2-|
E|-----------------|-----------------|-----------------|-----------------|
   .....................................................................


[CHORUS]
2.43 - 3.20
"I don't wanna know know know, who's taking you home, home home..."
e|-3--3--3--3-3-3-3-3-|-2--2--2--2-2-2-2-2-|-3--3--3--3-3-3-3-3-|-2--2--2--2-2-2-2-2-|
B|-2--2--2--2-2-2-2-2-|-3--3--3--3-3-3-3-3-|-3--3--3--3-3-3-3-3-|-0--0--0--0-0-0-0-0-|
G|-0--0--0--0-0-0-0-0-|-2--2--2--2-2-2-2-2-|-0--0--0--0-0-0-0-0-|-0--0--0--0-0-0-0-0-| x4
D|-2--2--2--2-2-2-2-2-|-0--0--0--0-0-0-0-0-|-2--2--2--2-2-2-2-2-|-2--2--2--2-2-2-2-2-|
A|-3--3--3--3-3-3-3-3-|--------------------|-2--2--2--2-2-2-2-2-|-2--2--2--2-2-2-2-2-|
E|--------------------|--------------------|--------------------|--------------------|
   U  U  U  U D U D U  U  U  U  U D U D U    U  U  U  U D U D U   U  U  U  U D U D U


[OUTRO]
(all downstokes)
3.21 - To End
"Hey, oh hey, oh hey..."
e|-3--3--3--3--3-3-|-2--2--2--2--2-2-|-3--3--3--3--3-3-|-2--2--2--2--2-2-|
B|-3--3--3--3--3-3-|-3--3--3--3--3-3-|-3--3--3--3--3-3-|-0--0--0--0--0-0-|
G|-0--0--0--0--0-0-|-2--2--2--2--2-2-|-0--0--0--0--0-0-|-0--0--0--0--0-0-| x1
D|-2--2--2--2--2-2-|-0--0--0--0--0-0-|-2--2--2--2--2-2-|-2--2--2--2--2-2-|
A|-3--3--3--3--3-3-|-----------------|-2--2--2--2--2-2-|-2--2--2--2--2-2-|
E|-----------------|-----------------|-----------------|-----------------|
   .....................................................................
            
Submit corrections



        Dont Wanna Know  lessons Hard to play? Try these video lessons and learn fast Dont Wanna Know  lessons
        
↑ Back to top | Tablatures and chords for acoustic guitar and electric guitar, ukulele, drums are parodies/interpretations of the original songs. You may use it for private study, scholarship, research or language learning purposes only