» » »

Maroon 5 - Dont Wanna Know Tabs

Artists:  A B C D E F G H I J K L M N O P Q R S T U V W X Y Z # 

Dont Wanna Know Tabs

(ver. 1) Click to play this song!
Maroon 5
 Rating:
4.3/5 (9 votes)

 Dont Wanna Know  lessons Tabs too difficult? Try these video lessons and learn fast
 
                [Chorus] 
(The song begins with the chorus)
(mute with your tumb on the X part)

   C                  D                  E                     G
e|---------------------------------------------------------------------------------|
B|---------------------------------------------------------------------------------|
G|----0--x--0--0--0-x-----2--x--2--2--2-x-----0--x--0--0--0-x-----0--x--0--0--0-x--|  Middle
D|----2--x--2--2--2-x-----0--x--0--0--0-x-----2--x--2--2--2-x-----0--x--0--0--0-x--|  Index
A|-3-----x--3--3----x--0-----x--0--0----x--------x----------x--------x----------x--|  Thumb
E|-------x----------x--------x----------x--0-----x--0--0----x--3-----x--3--3----x--|  Thumb

So you can get an idea of the rythm
023 part has 1 time btwn
instantly after the 02 mute

[Verse & Pre-Chorus] 
they are the same (and for the rap part)
So here's nothing too special, just do each for one beat

    C           D           E           G
e|---------------------------------------------------------------------------|
B|---------------------------------------------------------------------------|
G|--0--x--0--x--2--x--2--x--0--x--0--x--0--x--0------------------------------|
D|--2--x--2--x--0--x--0--x--2--x--2--x--0--x--0------------------------------|
A|--3--x--3--x--0--x--0--x-----x-----x-----x---------------------------------|
E|-----x-----x-----x-----x--0--x--0--x--3--x--3------------------------------|
            
Submit corrections


        Dont Wanna Know  lessons Hard to play? Try these video lessons and learn fast Dont Wanna Know  lessons
        
↑ Back to top | Tablatures and chords for acoustic guitar and electric guitar, ukulele, drums are parodies/interpretations of the original songs. You may use it for private study, scholarship, research or language learning purposes only