» » »

Maroon 5 - Animals Tabs

Artists:  A B C D E F G H I J K L M N O P Q R S T U V W X Y Z # 

Animals Tabs

(ver. 3) Click to play this song!
Maroon 5
 Rating:
4/5 (4 votes)

 Animals  lessons Tabs too difficult? Try these video lessons and learn fast
 
                Into Part 1:

E|--------------------------------------|--------------------------------------|
B|--------------------15----15----------|--------------------15----15----------|
G|-----------------------------16----16-|-----------------------------16----16-|
D|-14-14-14---14---14-------------------|-14-14-14---14---14-------------------|
A|--------------------------------------|--------------------------------------|
E|--------------------------------------|--------------------------------------|


Intro Part 2:

E|------------------------------------------------|
B|------------------------------------------------|
G|------------------------------------------------|
D|--14-16-17-16-14~-16-17-16-14~-16-17-16-14~-12~~|
A|------------------------------------------------|
E|------------------------------------------------|


Into Part 1: 

E|--------------------------------------|--------------------------------------|
B|--------------------15----15----------|--------------------15----15----------|
G|-----------------------------16----16-|-----------------------------16----16-|
D|-14-14-14---14---14-------------------|-14-14-14---14---14-------------------|
A|--------------------------------------|--------------------------------------|
E|--------------------------------------|--------------------------------------|


Intro Part 2:

E|------------------------------------------------|
B|------------------------------------------------|
G|------------------------------------------------|
D|--14-16-17-16-14~-16-17-16-14~-16-17-16-14~-12~~|
A|------------------------------------------------|
E|------------------------------------------------|


Intro Part 3:

E|------------|--------------------|--------------------|
B|------------|--------------------|--------------------|
G|------------|---7-9--9----7-9-9--|---7-9--9----7-9-9--|
D|-14-14-14\--|-9---------9--------|-9---------9--------|
A|------------|--------------------|--------------------|
E|------------|--------------------|--------------------|

        

            
Submit corrections


        Animals  lessons Hard to play? Try these video lessons and learn fast Animals  lessons
        
↑ Back to top | Tablatures and chords for acoustic guitar and electric guitar, ukulele, drums are parodies/interpretations of the original songs. You may use it for private study, scholarship, research or language learning purposes only