» » »

Maroon 5 - Animals Tabs

Artists:  A B C D E F G H I J K L M N O P Q R S T U V W X Y Z # 

Animals Tabs

(ver. 1) Click to play this song!
Maroon 5
 Rating:
4/5 (4 votes)

 Animals  lessons Tabs too difficult? Try these video lessons and learn fast
 
                Tuning:Standard eBGDAE

                          Chorus and verses
  

  "Preying"        "Down"           "Animals"
e|---0-0-0-0-0-0-0----0-0-0-0-0-0-0----0-0-0-0-0-0-0--------------------------------------------------|
B|---8-8-8-8-8-8-8----7-7-7-7-7-7-7----5-5-5-5-5-5-5---------—----------------------------------------|
G|---0-0-0-0-0-0-0----0-0-0-0-0-0-0----0-0-0-0-0-0-0--------------------------------------------------|
D|---x-x-x-x-x-x-x----x-x-x-x-x-x-x----x-x-x-x-x-x-x--------------------------------------------------|
A|---6-6-6-6-6-6-6----5-5-5-5-5-5-5----3-3-3-3-3-3-3--------------------------------------------------|
E|---x-x-x-x-x-x-x----x-x-x-x-x-x-x----x-x-x-x-x-x-x--------------------------------------------------|

During some parts of the song James goes up to a G chord, but normally he will do Em D C Em G C

     "Down"
e|---0-0-0-0-0-0-0-0-0-0------------------------------------------------------------------------|
B|---12-12-12-12-12-12-12-----------------------------------------------------------------------|
G|---0-0-0-0-0-0-0-0-0-0------------------------------------------------------------------------|
D|---x-x-x-x-x-x-x-x-x-x------------------------------------------------------------------------|
A|---10-10-10-10-10-10-10-----------------------------------------------------------------------|
E|----------------------------------------------------------------------------------------------|
            
Submit corrections


        Animals  lessons Hard to play? Try these video lessons and learn fast Animals  lessons
        
↑ Back to top | Tablatures and chords for acoustic guitar and electric guitar, ukulele, drums are parodies/interpretations of the original songs. You may use it for private study, scholarship, research or language learning purposes only