» » »

M83 - Midnight City Tabs

Artists:  A B C D E F G H I J K L M N O P Q R S T U V W X Y Z # 

Midnight City Tabs

(ver. 2) Click to play this song!
M83
 Rating:
2.1/5 (25 votes)

 Midnight City lessons Tabs too difficult? Try these video lessons and learn fast
 
                e||---------------|-----------------|----------------------------|-----------|
B||-19--15------19|Repeat 3 times---|-19--15-----19-19-19-19-19--|-----------|
G||---------16----|-----------------|---------16-----------------|-----------|
D|---------------------------------------------------------------------------|
A|---------------------------------------------------------------------------|
E|---------------------------------------------------------------------------|
  BASSLINE REAPEAT
e|---------------------------------------------------------------------------|
B|---------------------------------------------------------------------------|
G|---------------------------------------------------------------------------|
D|---------------------------------------------------------------------------|
A|---------------------------------------------------------------------------|
E|-3----3/7--7\5-5\3--3\2-2\3------------------------------------------------|

CHORDS
    G            Bm           A            G      G?
e|--3-3-3-3-3-3--7-7-7-7-7-7--5-5-5-5-5-5--3-3-3--2-2-2----------------------|
B|--3-3-3-3-3-3--7-7-7-7-7-7--5-5-5-5-5-5--3-3-3--2-2-2----------------------|
G|--4-4-4-4-4-4--7-7-7-7-7-7--6-6-6-6-6-6--4-4-4--3-3-3----------------------|
D|--5-5-5-5-5-5--9-9-9-9-9-9--7-7-7-7-7-7--5-5-5--4-4-4----------------------|
A|--5-5-5-5-5-5--9-9-9-9-9-9--7-7-7-7-7-7--5-5-5--4-4-4----------------------|
E|--3-3-3-3-3-3--7-7-7-7-7-7--5-5-5-5-5-5--3-3-3--2-2-2----------------------|

            
Submit corrections


        Midnight City lessons Hard to play? Try these video lessons and learn fast Midnight City lessons
        
↑ Back to top | Tablatures and chords for acoustic guitar and electric guitar, ukulele, drums are parodies/interpretations of the original songs. You may use it for private study, scholarship, research or language learning purposes only