Home » M » M83 »

M83 - Midnight City Chords

Artists:  A B C D E F G H I J K L M N O P Q R S T U V W X Y Z # 

Midnight City Chords

(ver. 2) Click to play this song!
M83
 Rating:
3.2/5 (20 votes)
                  (Intro) 

1----2-----2-]----2-----2-]----2-----2-]----2-----2-]
2------3-----]------3-----]------3-----]------3-----]
3--------4---]--------4---]--------4---]--------4---]
4------------]------------]------------]------------]
5------------]--2---------]--0---------]------------]
6--3---------]------------]------------]--0---------]


If you want to play the chords and melody together it would go like this

   G           Bm            A           Em
1--2-2-----2-]--2-2-----2-]----2-----2-]----2-----2-]
2--0---3-----]--3---3-----]--2---3-----]------3-----]
3--0-----4---]--4-----4---]--2-----4---]--------4---]
4--0---------]--4---------]--2---------]--2---------]
5--2---------]--2---------]--0---------]--2---------]
6--3---------]------------]------------]--0---------]

(Intro) x4

G            Bm
Waiting in a car
A              Em
Waiting for a ride in the dark
G                Bm
The night city grows
A                 Em
Look and see her eyes, they glow

(Intro) x2

G            Bm
Waiting in a car
A             Em
Waiting for a ride in the dark
G                Bm
Drinking in the lounge
A              Em
Following the neon signs
G              Bm
Waiting for a roar
A               Em
Looking at the mutating skyline
G               Bm
The city is my church  (City is my church )
A                   Em
It wraps me in the sparkling twilight

(Intro) x2

(Continue playing Intro throughout this verse) 

Waiting in a car
Waiting for the right time
Waiting in a car
Waiting for the right time
Waiting in a car
Waiting for the right time
Waiting in a car
Waiting for the right time
Waiting in a car
Waiting for a ride in the dark

(Saxophone Solo) and (Intro) x6 (Fade Out with Sax)  
            
Submit corrections

↑ Back to top | Tablatures and chords for acoustic guitar and electric guitar, ukulele, drums are parodies/interpretations of the original songs. You may use it for private study, scholarship, research or language learning purposes only