» » »

M83 - Midnight City Tabs

Artists:  A B C D E F G H I J K L M N O P Q R S T U V W X Y Z # 

Midnight City Tabs

(ver. 1) Click to play this song!
M83
 Rating:
4/5 (4 votes)

 Midnight City lessons Tabs too difficult? Try these video lessons and learn fast
 
                                            Midnight City By M83
                                
                                  Melody

1----2-----2-]----2-----2-]----2-----2-]----2-----2-]
2------3-----]------3-----]------3-----]------3-----]
3--------4---]--------4---]--------4---]--------4---]
4------------]------------]------------]------------]
5------------]--2---------]--0---------]------------]
6--3---------]------------]------------]--0---------]

                                 Chords         
  G     Bm     A    Em
1--3--]--2--]-----]-----]
2--0--]--3--]--2--]-----]
3--0--]--4--]--2--]-----]
4--0--]--4--]--2--]--2--]
5--2--]--2--]--0--]--2--]
6--3--]-----]-----]--0--]

If you want to play the chords and melody together it would go like this

   G           Bm            A           Em
1--2-2-----2-]--2-2-----2-]----2-----2-]----2-----2-]
2--0---3-----]--3---3-----]--2---3-----]------3-----]
3--0-----4---]--4-----4---]--2-----4---]--------4---]
4--0---------]--4---------]--2---------]--2---------]
5--2---------]--2---------]--0---------]--2---------]
6--3---------]------------]------------]--0---------]
            
Submit corrections


        Midnight City lessons Hard to play? Try these video lessons and learn fast Midnight City lessons
        
↑ Back to top | Tablatures and chords for acoustic guitar and electric guitar, ukulele, drums are parodies/interpretations of the original songs. You may use it for private study, scholarship, research or language learning purposes only