Home » L » Luis Fonsi »

Luis Fonsi - Despacito solo Tabs

Artists:  A B C D E F G H I J K L M N O P Q R S T U V W X Y Z # 

Despacito solo Tabs

(ver. 7) Click to play this song!
Luis Fonsi
[Intro]
e|-7--10p9p7\6--7--|-7--9--10--12--14----14----14--|
B|-7---------------|-7----------------15----15-----|
G|-7---------------|-7-----------------------------|
D|-----------------|-------------------------------|
A|-----------------|-------------------------------|
E|-----------------|-------------------------------|

e|----10------9----7---------|-10--9--7--------|-10--9--7--9--10--|-10--9--10--12--9--7--7--|
B|---------------------------|----------10--8--|------------------|-------------------------|
G|-9/11----11\9--9\7---------|-----------------|------------------|-------------------------|
D|---------------------------|-----------------|------------------|-------------------------|
A|---------------------------|-----------------|------------------|-------------------------|
E|---------------------------|-----------------|------------------|-------------------------|

[Verse]
e|-7----7--9--10--12--10--9--7--------10--10--|-10----10----10----10--12--9---7--7--|
B|-7--7------------------------10--8----------|----10----10----10-------------------|
G|--------------------------------------------|-------------------------------------|  2x
D|--------------------------------------------|-------------------------------------|
A|--------------------------------------------|-------------------------------------|
E|--------------------------------------------|-------------------------------------|

e|-7--7--7--7--9--10--10--10--10--10--9--7--|-7--7--7--9--10--10--10--10--10--12----
B|------------------------------------------|-----------------------------------10--
G|------------------------------------------|---------------------------------------
D|------------------------------------------|---------------------------------------
A|------------------------------------------|---------------------------------------
E|------------------------------------------|---------------------------------------
                                             *
e|---------------10--10--10--10--10--12--12--9--7--7--|
B|-10--10--10--10-------------------------------------|
G|----------------------------------------------------|  2x (stop at * on second repeat)
D|----------------------------------------------------|
A|----------------------------------------------------|
E|----------------------------------------------------|

[Chorus]
e|-10--9--7---------------7--7--7--7--7------------|------------7--7--7--7--7--9--10---------------------
B|----------7--7--7--7--7---------------10--12--8--|-8--8--8--8----------------------10--10--10--10--10--
G|-------------------------------------------------|-----------------------------------------------------
D|-------------------------------------------------|-----------------------------------------------------
A|-------------------------------------------------|-----------------------------------------------------
E|-------------------------------------------------|-----------------------------------------------------

e|-10--10--10--10--12--12--9--|
B|----------------------------|
G|----------------------------|  2x
D|----------------------------|
A|----------------------------|
E|----------------------------|            
Submit corrections

↑ Back to top | Tablatures and chords for acoustic guitar and electric guitar, ukulele, drums are parodies/interpretations of the original songs. You may use it for private study, scholarship, research or language learning purposes only