Home » L » Luis Fonsi »

Luis Fonsi - Despacito Tabs

Artists:  A B C D E F G H I J K L M N O P Q R S T U V W X Y Z # 

Despacito Tabs

(ver. 3) Click to play this song!
Luis Fonsi
[Intro]
        Em            C                 G               D
e|-0---0---0---0--|----------------|----------------|-2~-------------|
B|--0---0---0---0-|--1---1---1---1-|--0---0---0---0-|-3~-------------|
G|---0---0---0---0|---0---0---0---0|---0---0---0---0|-2~-------------|
D|-2--------------|-2---2---2---2--|-0---0---0---0--|-0~-------------|
A|----------------|----------------|----------------|----------------|
E|----------------|----------------|----------------|----------------|

        Em            C                 G               D
e|-0----0--------0|-0--------------|----------------|-0~-------------|
B|-0-0----0-0-(0)-|-1-1---1-1------|-3-3---3-3------|-3~-------------|
G|-0-0-------0----|-0--0------0-0--|-0--0------0-0--|-2~-------------|
D|-2--------------|-2---2--------2-|-0---0--------0-|-0~-------------|
A|-2--------------|-3--------------|-2--------------|----------------|
E|-0--------------|----------------|-3--------------|----------------|

e|--0-3-2-2p0-0---|--0-2-3-5-7~7~7~|----------3---2-|----------------|
B|-0--------------|-0---------8~8~-|----------------|----------------|
G|0---------------|0---------------|-------2/4---2--|----------------|
D|----------------|----------------|----------------|----------------|
A|----------------|----------------|----------------|----------------|
E|----------------|----------------|----------------|----------------|

    Strum here in between licks
e|--0-0--0-3-2-2p0|-------0-3-2-0h2|-3-3---0-3-2-0-5|-2------3--2----|
B|----0-----------|-1--------------|---3------------|-3--------------|
G|-0--0-----------|----------------|---0------------|-2---2/4--2-----|
D|----2-----------|----------------|---0------------|----------------|
A|----2-----------|----------------|---2------------|----------------|
E|----0-----------|----------------|---3------------|----------------|

e|-—0-------------|
B|----------------|
G|-0--------------|
D|----------------|
A|----------------|
E|----------------|


The last bar is also starts the first Em

After this the song pretty much is just
Em, C, G,             
Submit corrections

↑ Back to top | Tablatures and chords for acoustic guitar and electric guitar, ukulele, drums are parodies/interpretations of the original songs. You may use it for private study, scholarship, research or language learning purposes only