» » »

Lower Than Atlantis - Just What You Need Tabs

Artists:  A B C D E F G H I J K L M N O P Q R S T U V W X Y Z # 

Just What You Need Tabs

(ver. 2) Click to play this song!
Lower Than Atlantis
 Rating:
4.1/5 (24 votes)

 Just What You Need  lessons Tabs too difficult? Try these video lessons and learn fast
 
                Tuning:DADGBbEb (Drop D with the bottom two strings tuned down a half-step)

Intro - Acoustic
e|---------------------------------------------------------------------------|
B|------------------------------------------------4h5p4p0h2p0h2h4------------|
G|------------0---3h5p3p0----------------------------------------------------|
D|-----0h3----------------3p0h3h5-------0h3----0-----------------------------|
A|---------------------------------------------------------------------------|
E|-5--------5-----------------------5--------5-------------------------------|

e|---------------------------------------------------------------------------|
B|---------------------------------------------------------------------------|
G|------------0---3h5p3p0----------------------0---5\7-7-7-7/5-5-5-----------|
D|-----0h3----------------3p0h3h5-------0h3--------3\5-5-5-5/3-3-3-----------|
A|---------------------------------------------------------------------------|
E|-1--------1-----------------------3--------3-------------------------------| x2

Verse 1 - Acoustic
e|---------------------------------------------------------------------------|
B|------------------------------------------------4h5p4p0h2p0h2h4------------|
G|------------0---3h5p3p0----------------------------------------------------|
D|-----0h3----------------3p0h3h5-------0h3----0-----------------------------|
A|---------------------------------------------------------------------------|
E|-5--------5-----------------------5--------5-------------------------------|

e|---------------------------------------------------------------------------|
B|---------------------------------------------------------------------------|
G|------------0---3h5p3p0----------------------0---5\7-7-7-7/5-5-5-----------|
D|-----0h3----------------3p0h3h5-------0h3--------3\5-5-5-5/3-3-3-----------|
A|---------------------------------------------------------------------------|
E|-1--------1-----------------------3--------3-------------------------------| x2

Pre Chorus - Acoustic
e|---------------------------------------------------------------------------|
B|------------------------------------------------4h5p4p0h2p0h2h4------------|
G|------------0---3h5p3p0----------------------------------------------------|
D|-----0h3----------------3p0h3h5-------0h3----0-----------------------------|
A|---------------------------------------------------------------------------|
E|-5--------5-----------------------5--------5-------------------------------|

e|------------------------------------|
B|------------------------------------|
G|------------0---3h5p3p0-------------|
D|-----0h3----------------3p0h3h5-----|
A|------------------------------------|
E|-1--------1-------------------------|

Chorus - Acoustic
e|-0-----0--0----0-----0--0----0----0----0------0--0----0------0----------------------------|
B|-0-----5--0----0-----5--0----0----0----0------5--0----0------0----------------------------|
G|-0-----0--2----0-----0--2----3----5----0------0--2----0------5----------------------------|
D|-1-----5--3----1-----5--3----5----6----1------5--3----1------4----------------------------|
A|-1-----3--3----1-----3--3----5----6----1------3--3----1------6----------------------------|
E|-1-----x--3----1-----x--3----5----6----1------x--3----1------x----------------------------|

Verse - Electric with distortion
e|---------------------------------------------------------------------------|
B|------------------------------------------------4h5p4p0h2p0h2h4------------|
G|------------0---3h5p3p0----------------------------------------------------|
D|-----0h3----------------3p0h3h5-------0h3----0-----------------------------|
A|---------------------------------------------------------------------------|
E|-5--------5-----------------------5--------5-------------------------------|

e|---------------------------------------------------------------------------|
B|---------------------------------------------------------------------------|
G|------------0---3h5p3p0----------------------0---5\7-7-7-7/5-5-5-----------|
D|-----0h3----------------3p0h3h5-------0h3--------3\5-5-5-5/3-3-3-----------|
A|---------------------------------------------------------------------------|
E|-1--------1-----------------------3--------3-------------------------------| x2

Pre Chorus 2 - Electric with distortion
e|---------------------------------------------------------------------------|
B|------------------------------------------------4h5p4p0h2p0h2h4------------|
G|------------0---3h5p3p0----------------------------------------------------|
D|-----0h3----------------3p0h3h5-------0h3----0-----------------------------|
A|---------------------------------------------------------------------------|
E|-5--------5-----------------------5--------5-------------------------------|

e|-------------------------------------------------------------------|
B|-------------------------------------------------------------------|
G|------------0---3h5p3p0----------------------0---------------------|
D|-----0h3----------------3p0h3h5-------0h3---------5---4---3---2----|
A|--------------------------------------------------5---4---3---2----|
E|-1--------1-----------------------3--------3------5---4---3---2----|

Chorus - Electric Clean
e|-0-----0--0----0-----0--0----0----0----0------0--0----0------0----------------------------|
B|-0-----5--0----0-----5--0----0----0----0------5--0----0------0----------------------------|
G|-0-----0--2----0-----0--2----3----5----0------0--2----0------5----------------------------|
D|-1-----5--3----1-----5--3----5----6----1------5--3----1------4----------------------------|
A|-1-----3--3----1-----3--3----5----6----1------3--3----1------6----------------------------|
E|-1-----x--3----1-----x--3----5----6----1------x--3----1------x----------------------------|

Bridge - Distortion
e|-------------------------------------------------------------------------|
B|-------------------------------------------------------------------------|
G|------------0---------------0---------------0----------------------------|
D|-----0h3-------------0h3-------------0h3-------------5p3---0-------------|
A|-------------------------------------------------------------------------|
E|-5--------5------1--------1------3--------3------1-----------------------|

e|--------------------------------------------------------------------------|
B|--------------------------------------------------------------------------|
G|------------0---------------0---------------0-----------------------------|
D|-----0h3-------------0h3-------------0h3-------------5p3---0--------------|
A|--------------------------------------------------------------------------|
E|-5--------5------3--------3------1--------1------3------------------------| x2

Chorus                         Acoustic for first six chords then distortion
e|-0-----0--0----0-----0--0----0----0----0------0--0----0------0----------------------------|
B|-0-----5--0----0-----5--0----0----0----0------5--0----0------0----------------------------|
G|-0-----0--2----0-----0--2----3----5----0------0--2----0------5----------------------------|
D|-1-----5--3----1-----5--3----5----6----1------5--3----1------4----------------------------|
A|-1-----3--3----1-----3--3----5----6----1------3--3----1------6----------------------------|
E|-1-----x--3----1-----x--3----5----6----1------x--3----1------x----------------------------|

Chorus - Electric with distortion
e|-0-----0--0----0-----0--0----0----0----0------0--0----0------0-0-0-0--0-0-0-0-------------|
B|-0-----5--0----0-----5--0----0----0----0------5--0----0------0-0-0-0--0-0-0-0-------------|
G|-0-----0--2----0-----0--2----3----5----0------0--2----0------5-5-5-5--5-5-5-5-------------|
D|-1-----5--3----1-----5--3----5----6----1------5--3----1------4-4-4-4--4-4-4-4-------------|
A|-1-----3--3----1-----3--3----5----6----1------3--3----1------6-6-6-6--6-6-6-6-------------|
E|-1-----x--3----1-----x--3----5----6----1------x--3----1------x-x-x-x--x-x-x-x-------------|

Outro - Distortion
e|---------------------------------------------------------------------------|
B|------------------------------------------------4h5p4p0h2p0h2h4------------|
G|------------0---3h5p3p0----------------------------------------------------|
D|-----0h3----------------3p0h3h5-------0h3----0-----------------------------|
A|---------------------------------------------------------------------------|
E|-5--------5-----------------------5--------5-------------------------------|

e|---------------------------------------------------------------------------|
B|---------------------------------------------------------------------------|
G|------------0---3h5p3p0----------------------0---5\7-7-7-7/5-5-5-----------|
D|-----0h3----------------3p0h3h5-------0h3--------3\5-5-5-5/3-3-3-----------|
A|---------------------------------------------------------------------------|
E|-1--------1-----------------------3--------3-------------------------------|            
Submit corrections


        Just What You Need  lessons Hard to play? Try these video lessons and learn fast Just What You Need  lessons
        
↑ Back to top | Tablatures and chords for acoustic guitar and electric guitar, ukulele, drums are parodies/interpretations of the original songs. You may use it for private study, scholarship, research or language learning purposes only