» » »

Lower Than Atlantis - Emily Tabs

Artists:  A B C D E F G H I J K L M N O P Q R S T U V W X Y Z # 

Emily Tabs

(ver. 2) Click to play this song!
Lower Than Atlantis
 Rating:
4/5 (4 votes)

 Emily lessons Tabs too difficult? Try these video lessons and learn fast
 
                Intro/Chorus 1
--------------------------------|
--------------------------------|
-7---7/2-(2)-----6--------------|
-7---7/2-(2)-----6--4-4-4-(4)---|
-5---5/0-(0)-----4--4-4-4-(4)---|
--------------------2-2-2-(2)---|

Chorus 2
-------------------------------------------------------------------|
-2-2-2-2-2-2-2-2-2-2-2-2-1-1-1-2-2-2-2-----------------------------|
-------------------------------------------------------------------|
-------------------------------------------------------------------|
---------------------------------------4-4-4-4-4-4-2-2-2-4-4/7-7-7-|
-------------------------------------------------------------------|
 * * * * * * * * * * * * * * * * * * * * * * * * * * * * * 

Chorus 3
--------------------------------------------------------|
--------------------------------------------------------|
---6-------7-7-7-7-7-7----------------------------------|
-7-6-4-2---7-7-7-7-7-7-3-3-3-3-3-3-2-2-3/7-(7)----------|
-7-4-4-2---5-5-5-5-5-5-3-3-3-3-3-3-2-2-3/7-(7)----------|
-5---2-0---------------1-1-1-1-1-1-0-0-1/5-(5)----------|

--------------------------------------------------------|
--------------------------------------------------------|
---6-6----------7-7-7-7-7-7-10-10-10-10-10-10-(10)------|
-7-6-6-4-2-2-2--7-7-7-7-7-7-10-10-10-10-10-10-(10)------|
-7-4-4-4-2-2-2--5-5-5-5-5-5-8--8--8--8--8--8--(8)-------|
-5-----2-0-0-0------------------------------------------|

Solo
--------------------------------------------------------------------------------------------|
--------------------------------------------------------------------------------------------|
--------------------------------------------------------------------------------------------|
-------2/7-6-6-6-6-6-6/2-4-4-2-2------------/4-4-4-2-2-2------------------------------------|
-0-0-0--------------------------4-4-4-0-0-0--------------4-4-4-5-5-5-4-4-4~-----------------|
--------------------------------------------------------------------------------------------|
 * * *
----------------------------------------------------------------------------------------------------------|
----------------------------------------------------------------------------------------------------------|
----------------------------------------------------------------------------------------------------------|
-------2/7-6-6-6-6-6-6/9-7-7-6-6-4-4-7-7-7/9-9-9-9-9/7-7/9-9-9-9-9/7-7/11-11-11-11-11/7-7/11-11-11-11b13r-|
-0-0-0----------------------------------------------------------------------------------------------------|
----------------------------------------------------------------------------------------------------------|
 * * *

Post Solo
---------------------------------------------------------------|
---------------------------------------------------------------|
----7-------2-------6-------------7-------2-------6------------|
----7-------2-------6------4------7-------2-------6------4-----|
-5-(5)---0-(0)---4-(4)-----4---5-(5)---0-(0)---4-(4)-----4-----|
------------------------2-(2)--------------------------2-2-----|

---------------------------------------------------------------|
---------------------------------------------------------------|
----7-------2-------6-------------7-------2-------6------------|
----7-------2-------6------4------7-------2-------6----4-4-4---|
-5-(5)---0-(0)---4-(4)-----4---5-(5)---0-(0)---4-(4)---4-4-4---|
------------------------2-(2)--------------------------2-2-2---|

Chorus 1 x4
Chorus 3 x1
Chorus 1 x3

Outro
------------------------|
------------------------|
-7-7--------------------|
-7-7-7/6/5/4/3/2-(2)----|
-5-5-7/6/5/4/3/2-(2)----|
-----5/4/3/2/1/0-(0)----|

SONG STRUCTURE:
Chorus 1        x4
Chorus 2        x2
Chorus 1        x4
Chorus 3        x1
Chorus 1        x1
Chorus 2        x1
Chorus 1        x4
Chorus 3        x1
Solo            x1
Post Solo       x1
Chorus 1        x4
Chorus 3        x1
Chorus 1        x3
Outro           x1
            
Submit corrections


        Emily lessons Hard to play? Try these video lessons and learn fast Emily lessons
        
↑ Back to top | Tablatures and chords for acoustic guitar and electric guitar, ukulele, drums are parodies/interpretations of the original songs. You may use it for private study, scholarship, research or language learning purposes only