» » »

Lower Than Atlantis - Just What You Need Tabs

Artists:  A B C D E F G H I J K L M N O P Q R S T U V W X Y Z # 

Just What You Need Tabs

(ver. 1) Click to play this song!
Lower Than Atlantis
 Rating:
4/5 (4 votes)

 Just What You Need  lessons Tabs too difficult? Try these video lessons and learn fast
 
                Intro (Acoustic) 0:00 - 0:35 

Eb|---------------------------------------------------------------------------------------------|
Bb|-------------------------------------4-h5-h4p-2p-h2-4----------------------------------------|
G |--------------3-h5-3p--------------------------------------3-h5-3p----------------57777555---|
D |------------5--------3p-h3-h5------5-------------------3-5--------3p-h3-h5---3-5--35555333---|
A |--------5-h8-------------------5-h8----------------------------------------------------------|
D |----1/5-----------------------------------------------1---------------------3----------------|

(Acoustic) 0:37 - 0:54 

Eb|-------0~---0~--------0~---0~---0~---0~-------------0~-----------|
Bb|-------0~---0~--------0~---0~---0~---0~-------------0~-----------|
G |-------3~---3~--------3~---3~---5~---6~--------3~---3~--------5~-|
D |--1~---5~---3~---1~---5~---3~---5~---6~---1~---5~---3~---1~---4~-|
A |--1~---5~---0~---1~---5~---0~---0~---0~---1~---5~---0~---1~---6~-|
D |--1~--------3~---1~--------3~---5~---6~---1~--------3~---1~------|


Main Riff - 0:55 ...

Eb|---------------------------------------------------------------------------------------------|
Bb|-------------------------------------4-h5-h4p-2p-h2-4----------------------------------------|
G |--------------3-h5-3p--------------------------------------3-h5-3p----------------57777555---|
D |------------5--------3p-h3-h5------5-------------------3-5--------3p-h3-h5---3-5--35555333---|
A |--------5-h8-------------------5-h8----------------------------------------------------------|
D |----1/5-----------------------------------------------1---------------------3----------------|

Then at 1:16 play this...

Eb|------------------|
Bb|------------------|
G |------------------|
D |---5-4-3-2-1------|
A |---5-4-3-2-1------|
D |---5-4-3-2-1------|

1:18 - 1:37 (Chorus) Electric 

Eb|-------0~---0~--------0~---0~---0~---0~-------------0~-----------|
Bb|-------0~---0~--------0~---0~---0~---0~-------------0~-----------|
G |-------3~---3~--------3~---3~---5~---6~--------3~---3~--------5~-|
D |--1~---5~---3~---1~---5~---3~---5~---6~---1~---5~---3~---1~---4~-|
A |--1~---5~---0~---1~---5~---0~---0~---0~---1~---5~---0~---1~---6~-|
D |--1~--------3~---1~--------3~---5~---6~---1~--------3~---1~------|

1:37 Repeat this as many times needed...

Eb|------------------|
Bb|------------------|
G |------------------|
D |-------5------5---|
A |--5-h8---5-h8-----|
D |------------------|

Chorus - 

Eb|-------0~---0~--------0~---0~---0~---0~-------------0~-----------|
Bb|-------0~---0~--------0~---0~---0~---0~-------------0~-----------|
G |-------3~---3~--------3~---3~---5~---6~--------3~---3~--------5~-|
D |--1~---5~---3~---1~---5~---3~---5~---6~---1~---5~---3~---1~---4~-|
A |--1~---5~---0~---1~---5~---0~---0~---0~---1~---5~---0~---1~---6~-|
D |--1~--------3~---1~--------3~---5~---6~---1~--------3~---1~------|

Outro - 

Eb|---------------------------------------------------------------------------------------------|
Bb|-------------------------------------4-h5-h4p-2p-h2-4----------------------------------------|
G |--------------3-h5-3p--------------------------------------3-h5-3p----------------57777555---|
D |------------5--------3p-h3-h5------5-------------------3-5--------3p-h3-h5---3-5--35555333---|
A |--------5-h8-------------------5-h8----------------------------------------------------------|
D |----1/5-----------------------------------------------1---------------------3----------------|



            
Submit corrections


        Just What You Need  lessons Hard to play? Try these video lessons and learn fast Just What You Need  lessons
        
↑ Back to top | Tablatures and chords for acoustic guitar and electric guitar, ukulele, drums are parodies/interpretations of the original songs. You may use it for private study, scholarship, research or language learning purposes only