» » »

Lower Than Atlantis - English Kids In America Tabs

Artists:  A B C D E F G H I J K L M N O P Q R S T U V W X Y Z # 

English Kids In America Tabs

(ver. 2) Click to play this song!
Lower Than Atlantis
 Rating:
2.8/5 (22 votes)

 English Kids In America  lessons Tabs too difficult? Try these video lessons and learn fast
 
                Tuning: Open D (DADF#Ad)

Intro:
e|--------------------------------------------|
B|--------------------------------------------|
G|-8----7----5------5----7----0---------------|
D|-9----7----5------5----7----0---------------|
A|-x----x----x------x----x----0---------------|
E|-9----7----5------5----7----0---------------| x3

Verse:
e|----0-----------------0---------------------|
B|----0-----------------0---------------------|
G|----8-----------------0---------------------|
D|-9-----9\7--0------2-----2/4--0-------------|
A|-x-----x-x--0------x-----x-x--0-------------|
E|-9-----9\7--0------2-----2/4--0-------------|

e|----0-----------------0---------------------|
B|----0-----------------0---------------------|
G|----8-----------------0---------------------|
D|-9-----9\7--0------2-----2/4--0-------------|
A|-x-----x-x--0------x-----x-x--0-------------|
E|-9-----9\7--0------2-----2/4--0----4--------| x2

Pre Chorus:
e|-------------------0---------------------------------------------0----12+-------------------|
B|-------------------4b5p0--------------------------------------0--0----12+-------------------|
G|-----------------------------1h3p1p0------------------------0----0----12+-------------------|
D|-9p0h9p0h9\7p0------------------------2p0h2h4p0-------0-0h2------0----12+----4--------------|
A|-9p0h9p0h9\7p0--------------------------------------2------------0----12+----5--4b5p0-------|
E|-9p0h9p0h9\7p0------------------------------------2--------------0----12+----4--------------|

e|--------------------0----------------------------------------------0-----7+-----------------|
B|--------------------4b5p0---------------------------------------0--0-----7+-----------------|
G|------------------------------1h3p1p0-------------------------0----0-----7+-----------------|
D|-9p0h9----9\7p0------------------------2p0h2h4p0--------0-0h2------0-----7+----5------------|
A|-9p0h9----9\7p0---------------------------------------2------------0-----7+----5------------|
E|-9p0h9h16p9\7p0-------------------------------------2--------------0-----7+----5------------|

Chorus:
e|--------------------------------------------|
B|--------------------------------------------|
G|-8----7----5------5----7----0---------------|
D|-9----7----5------5----7----0---------------|
A|-x----x----x------x----x----0---------------|
E|-9----7----5------5----7----0---------------| x4

Verse:
e|----0-----------------0---------------------|
B|----0-----------------0---------------------|
G|----8-----------------0---------------------|
D|-9-----9\7--0------2-----2/4--0-------------|
A|-x-----x-x--0------x-----x-x--0-------------|
E|-9-----9\7--0------2-----2/4--0-------------|

e|----0-----------------0---------------------|
B|----0-----------------0---------------------|
G|----8-----------------0---------------------|
D|-9-----9\7--0------2-----2/4--0-------------|
A|-x-----x-x--0------x-----x-x--0-------------|
E|-9-----9\7--0------2-----2/4--0----4--------| x2

Pre Chorus:
e|-------------------0---------------------------------------------0----12+-------------------|
B|-------------------4b5p0--------------------------------------0--0----12+-------------------|
G|-----------------------------1h3p1p0------------------------0----0----12+-------------------|
D|-9p0h9p0h9\7p0------------------------2p0h2h4p0-------0-0h2------0----12+----4--------------|
A|-9p0h9p0h9\7p0--------------------------------------2------------0----12+----5--4b5p0-------|
E|-9p0h9p0h9\7p0------------------------------------2--------------0----12+----4--------------|

e|--------------------0----------------------------------------------0-----7+-----------------|
B|--------------------4b5p0---------------------------------------0--0-----7+-----------------|
G|------------------------------1h3p1p0-------------------------0----0-----7+-----------------|
D|-9p0h9----9\7p0------------------------2p0h2h4p0--------0-0h2------0-----7+----5------------|
A|-9p0h9----9\7p0---------------------------------------2------------0-----7+----5------------|
E|-9p0h9h16p9\7p0-------------------------------------2--------------0-----7+----5------------|

Chorus:
e|--------------------------------------------|
B|--------------------------------------------|
G|-8----7----5------5----7----0---------------|
D|-9----7----5------5----7----0---------------|
A|-x----x----x------x----x----0---------------|
E|-9----7----5------5----7----0---------------| x4

Bridge:
e|-----------------------------------------------------------------------------------|
B|-----------------------------------------------------------------------------------|
G|-0------2------5------7------0------3~---0-----------------------------------------|
D|-0------2------5------7------0------3~---0-----------------------------------------|
A|-0------x------x------x------0------x----0-----------------------------------------|
E|-0------2------5------7------0------3~---0-----------------------------------------|

e|-----------------------------------------------------------------------------------|
B|-----------------------------------------------------------------------------------|
G|-0---0---0-0----0-0-0-0------2---2---2-2----2-2-2-2------5---5---5----5-5-5-5------|
D|-0---0---0-0----0-0-0-0------2---2---2-2----2-2-2-2------5---5---5----5-5-5-5------|
A|-0---0---0-0----0-0-0-0------x---x---x-x----x-x-x-x------x---x---x----x-x-x-x------|
E|-0---0---0-0----0-0-0-0------2---2---2-2----2-2-2-2------5---5---5----5-5-5-5------|

e|-----------------------------------------------------------------------------------|
B|-----------------------------------------------------------------------------------|
G|-7---7---7-7----7-7-7-7------0----3~--0--------------------------------------------|
D|-7---7---7-7----7-7-7-7------0----3~--0--------------------------------------------|
A|-x---x---x-x----x-x-x-x------0----x---0--------------------------------------------|
E|-7---7---7-7----7-7-7-7------0----3~--0--------------------------------------------|

Chorus:
e|-0--0-0-0-0--0----0--0-0-0-0--0----0--0-0-0-0--0----0--0-0-0-0--0----0--0-0-0-0--0----0--0-0-0-0--0---|
B|-0--0-0-0-0--0----0--0-0-0-0--0----0--0-0-0-0--0----0--0-0-0-0--0----0--0-0-0-0--0----0--0-0-0-0--0---|
G|-0--0-0-0-0--0----0--0-0-0-0--0----0--0-0-0-0--0----0--0-0-0-0--0----0--0-0-0-0--0----0--0-0-0-0--0---|
D|-7--7-7-7-7--7----7--7-7-7-7--7----7--7-7-7-7--7----7--7-7-7-7--7----7--7-7-7-7--7----7--7-7-7-7--7---|
A|-5--5-5-5-5--5----5--5-5-5-5--5----5--5-5-5-5--5----5--5-5-5-5--5----5--5-5-5-5--5----5--5-5-5-5--5---|
E|-7--7-7-7-7--7----7--7-7-7-7--7----7--7-7-7-7--7----7--7-7-7-7--7----7--7-7-7-7--7----7--7-7-7-7--7---|

e|-0--0-0-0-0--0----0--0-0-0-0--0---|
B|-0--0-0-0-0--0----0--0-0-0-0--0---|
G|-0--0-0-0-0--0----0--0-0-0-0--0---|
D|-7--7-7-7-7--7----7--7-7-7-7--7---|
A|-5--5-5-5-5--5----5--5-5-5-5--5---|
E|-7--7-7-7-7--7----7--7-7-7-7--7---|

e|----------------------------------------------------------------------------------------|
B|----------------------------------------------------------------------------------------|
G|-8----7----5------5----7----0----------------8----7----5------5----7----0---------------|
D|-9----7----5------5----7----0----------------9----7----5------5----7----0---------------|
A|-x----x----x------x----x----0----------------x----x----x------x----x----0---------------|
E|-9----7----5------5----7----0----------------9----7----5------5----7----0---------------|

e|--------------------------------------------|
B|--------------------------------------------|
G|-8----7----5------5----7----0---------------|
D|-9----7----5------5----7----0---------------|
A|-x----x----x------x----x----0---------------|
E|-9----7----5------5----7----0---------------|            
Submit corrections


        English Kids In America  lessons Hard to play? Try these video lessons and learn fast English Kids In America  lessons
        
↑ Back to top | Tablatures and chords for acoustic guitar and electric guitar, ukulele, drums are parodies/interpretations of the original songs. You may use it for private study, scholarship, research or language learning purposes only