» » »

Lower Than Atlantis - English Kids In America Tabs

Artists:  A B C D E F G H I J K L M N O P Q R S T U V W X Y Z # 

English Kids In America Tabs

(ver. 1) Click to play this song!
Lower Than Atlantis
 Rating:
3.6/5 (25 votes)

 English Kids In America  lessons Tabs too difficult? Try these video lessons and learn fast
 
                Tuning: open D (DADf#AD) 

Intro: clean chorus and reverb effect:

d |-------------0--0-0--0-0--0-----------------------------------------------|
A |---5-5--4-4--0--0-0--0-0--0-----------------------------------------------|
f#|---x-x--x-x--5--5-5--7-7--0-----------------------------------------------|
D |---4-4--2-2--5--5-5--7-7--0-----------------------------------------------|
A |---2-2--0-0--x--x-x--x-x--0-----------------------------------------------|
D |-------------5--5-5--7-7--0-----------------------------------------------|


Main riff is repeated here with distortion:

d |-------------0-000--0-0---0-0--0-000---------------------------------------|
A |---5-5--4-4--0-000--0-0---0-0--0-000---------------------------------------|
f#|---x-x--x-x--5-555--5-5--/7-7--0-000---------------------------------------|
D |---4-4--2-2--5-555--5-5--/7-7--0-000---------------------------------------|
A |---2-2--0-0--x-xxx--x-x---x-x--0-000---------------------------------------|
D |-------------5-555--5-5--/7-7--0-000---------------------------------------|(x2)


Verse: clean chorus effect:

e|------0------0------0-----0------------------------------------------------|
B|------0------0------0-----0------------------------------------------------|
G|------8------0------0-----0------------------------------------------------|
D|----9----9\7-0----2---2/4-0--------4---------------------------------------|
A|----x----x-x-0----x---x-x-0--------x---------------------------------------|
E|----9----9\7-0----2---2/4-0---x2---4---------------------------------------|x4

Guitar 2 verse: delay
e|---------------------------------------------------------------------------|
B|---------------------------------------------------------------------------|
G|--788888888-10101010101010101010-121212121212121212------------------------|
D|---------------------------------------------------------------------------|
A|---------------------------------------------------------------------------|
E|---------------------------------------------------------------------------|

e|---------------------------------------------------------------------------|
B|---------------------------------------------------------------------------|
G|--788888888-101010101010101010 888888888888--------------------------------|
D|---------------------------------------------------------------------------|
A|---------------------------------------------------------------------------|
E|---------------------------------------------------------------------------|

e|-------------------------------------------------------------------------------|
B|-------------------------------------------------------------------------------|
G|-------------------------------------------------------------------------------|
D|--788888888-101010101010101010 12121212121212121212-15151515-1313131212121212--|
A|-------------------------------------------------------------------------------|
E|-------------------------------------------------------------------------------|

Middle bit:
e|---------------0--0----------------------------------0--12+----------------|
B|---------------0--4b5p0----------------------------0-0--12+----------------|
G|---------------0--------1h3p1p0-------------------0--0--12+----------------|
D|--9p0h9p0h9\7p0-----------------2p0h2s4p0----0-0h2---0--12+--4-------------|
A|--x----=-------0----------------------------2--------0--12+--5-4b5b4p0-----|
E|--9p0h9p0h9\7p0----------------------------2---------0--12+--4-------------|

e|---------------0--0-----------------------------------0--7+----------------|
B|---------------0--4b5p0----------------------------0--0--7+----------------|
G|---------------0--------1h3p1p0-------------------0---0--7+----------------|
D|--9p0h9-h16p9\7p0----------------2p0h2s4p0----0-0h2---0--7+--4-------------|
A|--x------------0-----------------------------2--------0--7+--5-4b5b4p0-----|
E|--9p0h9-h16p9\7p0---------------------------2---------0--7+--4-------------|

Chorus:

d |-------------0-000--0-0---0-0--0-000---------------------------------------|
A |---5-5--4-4--0-000--0-0---0-0--0-000---------------------------------------|
f#|---x-x--x-x--5-555--5-5--/7-7--0-000---------------------------------------|
D |---4-4--2-2--5-555--5-5--/7-7--0-000---------------------------------------|
A |---2-2--0-0--x-xxx--x-x---x-x--0-000---------------------------------------|
D |-------------5-555--5-5--/7-7--0-000---------------------------------------|(x4)


Verse 2:


Verse: clean chorus effect:

e|------0------0------0-----0------------------------------------------------|
B|------0------0------0-----0------------------------------------------------|
G|------8------0------0-----0------------------------------------------------|
D|----9----9\7-0----2---2/4-0--------4---------------------------------------|
A|----x----x-x-0----x---x-x-0--------x---------------------------------------|
E|----9----9\7-0----2---2/4-0---x2---4---------------------------------------|x2

Guitar 2 verse: delay
e|---------------------------------------------------------------------------|
B|---------------------------------------------------------------------------|
G|--788888888-10101010101010101010-121212121212121212------------------------|
D|---------------------------------------------------------------------------|
A|---------------------------------------------------------------------------|
E|---------------------------------------------------------------------------|

e|---------------------------------------------------------------------------|
B|---------------------------------------------------------------------------|
G|--788888888-101010101010101010 888888888888--------------------------------|
D|---------------------------------------------------------------------------|
A|---------------------------------------------------------------------------|
E|---------------------------------------------------------------------------|

e|-------------------------------------------------------------------------------|
B|-------------------------------------------------------------------------------|
G|-------------------------------------------------------------------------------|
D|--788888888-101010101010101010 12121212121212121212-15151515-1313131212121212--|
A|-------------------------------------------------------------------------------|
E|-------------------------------------------------------------------------------|

Middle bit:
e|---------------0--0----------------------------------0--12+----------------|
B|---------------0--4b5p0----------------------------0-0--12+----------------|
G|---------------0--------1h3p1p0-------------------0--0--12+----------------|
D|--9p0h9p0h9\7p0-----------------2p0h2s4p0----0-0h2---0--12+--4-------------|
A|--x----=-------0----------------------------2--------0--12+--5-4b5b4p0-----|
E|--9p0h9p0h9\7p0----------------------------2---------0--12+--4-------------|

e|---------------0--0-----------------------------------0--7+----------------|
B|---------------0--4b5p0----------------------------0--0--7+----------------|
G|---------------0--------1h3p1p0-------------------0---0--7+----------------|
D|--9p0h9-h16p9\7p0----------------2p0h2s4p0----0-0h2---0--7+--4-------------|
A|--x------------0-----------------------------2--------0--7+--5-4b5b4p0-----|
E|--9p0h9-h16p9\7p0---------------------------2---------0--7+--4-------------|

Chorus:

d |-------------0-000--0-0---0-0--0-000---------------------------------------|
A |---5-5--4-4--0-000--0-0---0-0--0-000---------------------------------------|
f#|---x-x--x-x--5-555--5-5--/7-7--0-000---------------------------------------|
D |---4-4--2-2--5-555--5-5--/7-7--0-000---------------------------------------|
A |---2-2--0-0--x-xxx--x-x---x-x--0-000---------------------------------------|
D |-------------5-555--5-5--/7-7--0-000---------------------------------------|(x4)

Bridge (I've left home you're home alone):
e|----0-----0----0----0----0--0--0-------------------------------------------|
B|----0-----0----0----0----0--0--0-------------------------------------------|
G|----8-----2----5----7----0--3--0-------------------------------------------|
D|----0-----2----5----7----0--3--0-------------------------------------------|
A|----0-----x----x----x----0--x--0-------------------------------------------|
E|----0-----2----5----7----0--3--0-------------------------------------------|


e|----0-0-00-0-000--0-0-00-0-000--0-0-00--0-0-000--0--0--0-------------------|
B|----0-0-00-0-000--0-0-00-0-000--0-0-00--0-0-000--0--0--0-------------------|
G|----8-8-88-8-888--2-2-22-2-222--5-5-55--7-7-777--0--3--0-------------------|
D|----0-0-00-0-000--2-2-22-2-222--5-5-55--7-7-777--0--3--0-------------------|
A|----0-0-00-0-000--x-x-xx-x-xxx--x-x-xx--x-x-xxx--0--x--0-------------------|
E|----0-0-00-0-000--2-2-22-2-222--5-5-55--7-7-777--0--3--0-------------------|

We'll get lost and find ourselves...
e|---------------------------------------------------------------------------|
B|---------------------------------------------------------------------------|
G|----88888888888888888888888888888------------------------------------------|
D|----xxxxxxxxxxxxxxxxxxxxxxxxxxxxx------------------------------------------|
A|----55555555555555555555555555555------------------------------------------|
E|---------------------------------------------------------------------------|
            
Submit corrections


        English Kids In America  lessons Hard to play? Try these video lessons and learn fast English Kids In America  lessons
        
↑ Back to top | Tablatures and chords for acoustic guitar and electric guitar, ukulele, drums are parodies/interpretations of the original songs. You may use it for private study, scholarship, research or language learning purposes only