Home » L » Lou Reed »

Lou Reed - Walk On The Wild Side Bass

Artists:  A B C D E F G H I J K L M N O P Q R S T U V W X Y Z # 

Walk On The Wild Side Bass

(ver. 3) Click to play this song!
Lou Reed
Walk on the Wild Side

writing the tab out. I adjusted the main riff to work on 1 bass. The timings
in the second half(ish) of the song get complicated so you'll have to listen
to the song although I've tried to use one '-' to equal one semi-quaver
but it's not entirely consistent. So |-9--8--7--4--| Would be a bar of 
quavers. Hope this tab helps.
                
                        x4
G||:-9----9/|-14----17\:|| }
D||:--------|----------:|| } Rif A (This is supposed to be split 
A||:--------|----------:|| }        between two basses but if you 
E||:-8----8/|-13----13\:|| }        play this it sounds about the same)

G|-------|-------|-------|-------|--------|--------|
D|-------|-------|-------|-------|--------|--------|
A|-------|-8----8|-------|-8----8|--------|-8------|
E|-8----8|-------|-8----8|-------|-8----10|------10|

Rif A x4
                           x2
G||:------------|---------:||
D||:------------|---------:||
A||:----10-7---8|---------:||
E||:-8----------|-----5--7:||

G|--------|--------|------------|-----------|------------|----------|
D|--------|--------|------------|-----------|------------|----------|
A|--------|-8------|----10-9----|-8---------|----10-9-8--|----------|
E|-8----10|------10|-8----------|------5-6-7|-8----------|----5--6-7|

Rif A x5

G|-9-----9/|-14----17\|-9-------|------------|------------|
D|---------|----------|---------|------------|------------|
A|---------|----------|---------|----10-9---8|----10\--7--|
E|-8-----8/|-13----13\|-8----567|-8----------|-----------8|

G|------------|------------|--------|--------|------------|
D|------------|------------|--------|--------|------------|
A|----10-9---8|------------|--------|-8------|----10-9---8|
E|-8----------|------5--6-7|-8----10|------10|-8----------|

G|------------|------------|----------|------------------------|
D|----10------|------------|----------|-14--13-14---15-16-17-18|
A|------8-----|------------|----------|------------------------|
E|--------5--7|-8----3--2-1|----5-6--7|------------------------|

G|-------------17\|----------------------|-----17-17--16--14---|
D|-19---17-19-----|-14--13-14---15--15/17|-19---------------17\|
A|----------------|----------------------|---------------------|
E|----------------|----------------------|---------------------|

G|-------------|-------------|-------------|----------|--------|
D|-------------|----7--------|-------------|----------|--------|
A|------10--9-8|------8------|------10-9--8|----------|--------|
E|-8-----------|---------8-10|-8-----------|----5--6-7|-8----10|

G|--------|--------------|--------------|-------------|-------------|
D|--------|--------10----|----10--------|-------------|--10---------|
A|-8------|------10---9-8|------8-------|------10-9--8|----8--------|
E|------10|-8------------|---------5-6-7|-8-----------|-------5-6--7|

Rif A x2

G|-------|-------------|--------|------------|--------|--------|
D|-------|------7------|--------|------7-----|--------|--------|
A|-------|-8-------8---|------10|-8------8---|--------|-8------|
E|-8----8|-----------10|-8------|----------10|-8----10|------10|

G|----------------|-------|------------|--------------------|
D|-------16-------|---10--|---10-------|--------------------|
A|-----14---10-9-8|-----8-|-----8------|------10-7-10--10-8-|
E|-8--------------|------5|------5--6-7|-8------------------|

G|------------------|----------|-14-------14---------|----------|
D|-----7-----7------|-14----17\|-------17---17--17-15|-14----17\|
A|------8--10-----10|----------|---------------------|----------|
E|-------------10---|----------|---------------------|----------|

G|-14-------------14|----1314-X16-17\|----------------------|
D|-------15h1617----|----------------|-14---171617----171719|
A|------------------|----------------|-------------14-------|
E|------------------|----------------|----------------------|

G|-------------|---------X15-16-17|-14----------------|
D|-------------|----1819----------|------X17-16-17-17/|
A|-------------|------------------|-------------------|
E|-------------|------------------|-------------------|

G|-----------------17\|---------------------|---------15-X16-17----|
D|-19---1617-18-19----|-14-1415-1516-17--14/|-19-1819-----------17\|
A|--------------------|---------------------|----------------------|
E|--------------------|---------------------|----------------------|

G|-------------------|-----------X15-X16----|-17\---------------|
D|-14---1417-1716-17/|-19---1819------------|------14---17-16-17|
A|-------------------|----------------------|-------------------|
E|-------------------|----------------------|-------------------|

G|-14---1314-X16-17\|--------------|---------------19-18|
D|------------------|-14-----17-16/|-19---1819-X20------|
A|------------------|--------------|--------------------|
E|------------------|--------------|--------------------|

G|-17--17\--14\--12\--|-10----9-10-12-10-|-9--9--14-12-14/-17-|
D|--------------------|------------------|--------------------|
A|--------------------|------------------|--------------------|
E|--------------------|------------------|--------------------|
         
G|-17----17---17--------|--------------------|---------------------|
D|---------15---14-14-12|-----/17--14-17/-19-|-19---1819-17-19-19/-|
A|----------------------|-15-----------------|---------------------|
E|----------------------|--------------------|---------------------|

G|-17--17\--------------|------------------|----------------------|
D|----------14-17-17-15-|----1517-14-17-15-|-14---171617-14-17-17/|
A|----------------------|------------------|----------------------|
E|----------------------|------------------|----------------------|

G|----------------17--17----|----------------------|
D|/19-1819--17-19--------19-|-14---1717------------|
A|--------------------------|----------------------|
E|--------------------------|----------------------|
        |_3__| |_3__| 
           Triplets
            
Submit corrections

↑ Back to top | Tablatures and chords for acoustic guitar and electric guitar, ukulele, drums are parodies/interpretations of the original songs. You may use it for private study, scholarship, research or language learning purposes only